Song name
# A B C D E F G H I J K L M N O P Q R S T U V W X Y Z

Pietasters - Must Catch A Train Live tab

Must Catch A Train (Live)
The Pietasters

Intro/Verse
|--8-8-x-x-8-x-x-8-x-x-8-x-8-x-|-5-5-x-x-5-x-5-x-|-7-7-x-x-7-x-7-x--|
|--8-8-x-x-8-x-x-8-x-x-8-x-8-x-|-6-6-x-x-6-x-6-x-|-8-8-x-x-8-x-8-x--|
|--9-9-x-x-9-x-x-9-x-x-9-x-9-x-|-5-5-x-x-5-x-5-x-|-7-7-x-x-7-x-7-x--|
|------------------------------|-----------------|------------------|
|------------------------------|-----------------|------------------|
|------------------------------|-----------------|------------------|

Chorus
|--5-5-x-x-5-x-5-x-|-7-7-x-x-7-x-7-x--|
|--6-6-x-x-6-x-6-x-|-8-8-x-x-8-x-8-x--|
|--5-5-x-x-5-x-5-x-|-7-7-x-x-7-x-7-x--|
|------------------|------------------|
|------------------|------------------|
|------------------|------------------|

Fill
|--------8-----|---5-----|---7------|
|----------8---|-----6---|-----8----|
|--9-7-9-----9-|-5-----5-|-7-----7--|
|--------------|---------|----------|
|--------------|---------|----------|
|--------------|---------|----------|


*played after 3rd chorus
Tap to rate this tab
 
# A B C D E F G H I J K L M N O P Q R S T U V W X Y Z