Song name
# A B C D E F G H I J K L M N O P Q R S T U V W X Y Z

Pietasters - Factory Concerto tab

Factory Concerto
The Pietasters

Intro
|--6-6-x-6-x-6-6-x--|
|--6-6-x-6-x-6-6-x--|
|--7-7-x-7-x-7-7-x--|
|-------------------|
|-------------------|
|-------------------|

Verse
|--3--6--5--4--|
|--3--6--6--5--|
|--4--7--5--4--|
|--------------|
|--------------|
|--------------|


repeats pattern twice
Tap to rate this tab
# A B C D E F G H I J K L M N O P Q R S T U V W X Y Z