Song name
# A B C D E F G H I J K L M N O P Q R S T U V W X Y Z

Pig Iron - Guns N Ammo tab

Guns n' Ammo by Pig Iron

INTRO
e---------------------------------------------------|
B---------------------------------------------------|
G---------------------------------------------------| play twice
D--------------------------------------------3h5-3--|
A-3-5-5-5-5--3-5-5-5-5--3-5-5-5-5--3-5-5-5-5--------|
E---------------------------------------------------|

e---------------------------------------------------|
B---------------------------------------------------|
G-5-7-7-7-7--5-7-7-7-7--5-7-7-7-7--5-7-7-7-7--------| play 8 times then...
D-5-7-7-7-7--5-7-7-7-7--5-7-7-7-7--5-7-7-7-7-3h5-3--|
A-3-5-5-5-5--3-5-5-5-5--3-5-5-5-5--3-5-5-5-5--------|
E---------------------------------------------------|

e-------|
B-------|
G-------|
D-7--6--|
A-7--6--|
E-5--4--|

OVER SOLO
e----------------------------------------|
B----------------------------------------|
G-5/7-7-7--5/7-7-7--5/7-7-7--5/7-7-7-7b--|
D-5/7-7-7--5/7-7-7--5/7-7-7--5/7-7-7-7b--|
A-3/5-5-5--3/5-5-5--3/5-5-5--3/5-5-5-5b--|
E----------------------------------------|

OUTRO
e----------|
B----------|
G-------7--| let last chord ring out
D-7--6--7--|
A-7--6--5--|
E-5--4-----|

Any corrections please comment
Thanks
http://www.pigironmc.com/
Tap to rate this tab
# A B C D E F G H I J K L M N O P Q R S T U V W X Y Z