Song name
# A B C D E F G H I J K L M N O P Q R S T U V W X Y Z

Pigmy Love Circus - Livin Like Shit tab

----------------------------------------------------------------------------
   LIVIN' LIKE SHIT- Pigmy Love Circus (www.pigmylovecircus.com)
----------------------------------------------------------------------------
Tabbed by:UsefullParabol
Email:tool462@verizon.net

Tuning:DADGBE

e|--------------------------------------------------------------------------|
B|-------------------------------------------------------3------------------|
G|-------------------------------------------------------2------------------|
D|---0---0--3--0--3--5--6--0--x-x--x-x-3--0--3--5--0---0-0------------------|
A|---0---0--3--0--3--5--6--0--x-x--x-x-3--0--3--5--0---0--------------------|
D|---0---0--3--0--3--5--6--0--x-x--x-x-3--0--3--5--0---0--------------------|

e|--------------------------------------------------------------------------|
B|---3---3---3---3---3-----3~ ----------------------------------------------|
G|---2---2---2---2---2-----2~ ----------------------------------------------|
D|---0---0---0---0---0-----0~ ----------------------------------------------|
A|---0---0---0---0---0-----0~ ----------------------------------------------|
D|---0---0---0---0---0-----0~ ----------------------------------------------|

e|--------------------------------------------------------------------------|
B|-------2------------------------------------------------------------------|
G|-------3---------------5--------------------------------------------------|
D|---6---0---0---3---0---5--------------------------------------------------|
A|---6-------0---3---0---3--------------------------------------------------|
D|---6-------0---3---0------------------------------------------------------|


| /  slide up
| \  slide down
| h  hammer-on
| p  pull-off
| ~  vibrato
| +  harmonic
| x  Mute note
============================================================================
Tap to rate this tab
# A B C D E F G H I J K L M N O P Q R S T U V W X Y Z