Song name
# A B C D E F G H I J K L M N O P Q R S T U V W X Y Z

Pigmy Love Circus - Drug Run To Fontana tab

----------------------------------------------------------------------------
DRUG RUN TO FONTANA - Pigmy Love Circus(www.pigmylovecircus.com)
----------------------------------------------------------------------------
Tabbed by:UseFullParabol
Email:tool462@verizon.net

Tuning:DADGBE

e|---------------------------------------------------------------------------|
B|---------------------------------------------------------------------------|
G|---------------------------------------------------------------------------|
D|--0---------------------2-/3-0-2-/3p0--------------------------------------|
A|--0---------------------2-/3-0-2-/3p0--------------------------------------|
D|--0---5--3--0--3--2--0--2-/3-0-2-/3p0--5--3--0-----------------------------|
        .  .  .  .  .  .       .         .  .  .    repeat
e|--------------------------------------------------------------------------|
B|--------------------------------------------------------------------------|
G|--------------------------------------------------------------------------|
D|--3---0--------------------3--0--5--0--6---5--0---------------------------|
A|--3---0--------------------3--0--5--0--6---5--0---------------------------|
D|--3---0--0--0--0--0--0--0--3--0--5--0--6---5--0---------------------------|
           .  .  .  .  .  .     .     .
e|--------------------------------------------------------------------------|
B|--------------------------------------------------------------------------|
G|--------------------------------------------------------------------------|
D|--3---0--------------------------6-\5-0-5-\3p0----------------------------|
A|--3---0--------------------------6-\5-0-5-\3p0----------------------------|
D|--3---0--0--0--0--0--0--0--0--0--6-\5-0-5-\3p0----------------------------|
           .  .  .  .  .  .  .  .       .
e|---------------------------------------------------------------------------|
B|---------------------------------------------------------------------------|
G|---------------------------------------------------------------------------|
D|--3---0--------------------------------------------------------------------|
A|--3---0--------------------------------------------------------------------|
D|--3---0--0--0--0--0--0--0--------------------------------------------------|
           .  .  .  .  .  .
e|--------------------------------------------------------------------------|
B|--------------------------------------------------------------------------|
G|--------------------------------------------------------------------------|
D|--3---0--------------------------8-\7-0-8-\7p0----------------------------|
A|--3---0--------------------------8-\7-0-8-\7p0----------------------------|
D|--3---0--0--0--1--1--1--1--3--3--8-\7-0-8-\7p0----------------------------|
           .  .  .  .  .  .  .  .       .           repeat
e|--------------------------------------------------------------------------|
B|------6---------8---------6---------8-------------------------------------|
G|------5---------7---------5---------7-------------------------------------|
D|--3---3--0--5---5--0--3---3--0--5---5--0----------------------------------|
A|--3------0--5------0--3------0--5------0----------------------------------|
D|--3------0--5------0--3------0--5------0----------------------------------|
           .         .         .
Bridge
e|-------0---0----0--0--0~- -------------------------------------------------|
B|-------3---3----3--3--3~- -------------------------------------------------|
G|-------2---1----1p-0--x- --------------------------------------------------|
D|--0~ --0---0----0--0--3~ --5~ ---------------------------------------------|
A|--0~ --------------0--3~ --5~ ---------------------------------------------|
E|--0~ --------------0--3~ --5~ --5--3--2------------------------------------|
                                  .  .  .    repeat

 ...not perfect but fun tab.

 .  palm mute
| /  slide up
| \  slide down
| h  hammer-on
| p  pull-off
| ~  vibrato
| +  harmonic
| x  Mute note
===============================================================================
Tap to rate this tab
# A B C D E F G H I J K L M N O P Q R S T U V W X Y Z