Song name
# A B C D E F G H I J K L M N O P Q R S T U V W X Y Z

Pigmy Love Circus - Swamp Creature tab

----------------------------------------------------------------------------
	  SWAMP CREATURE-Pigmy Love Circus(www.pigmylovecircus.com)
----------------------------------------------------------------------------
Tabbed by:UseFullParabol
Email:tool462@verizon.net


Tuning:DADGBE
  (clean)
e|--------------------------------------------------------------------------|
B|-----------3-------3------------------------------------------------------|
G|-----------2-------2------------------------------------------------------|
D|-----------0-0-----0-0-----------(5)--------------------------------------|
A|-----------3p0-----3p0------3p0--(5)--------------------------------------|
D|---0h3-3p0---0-3p0---0--0h3-3p0-------------------------------------------|

e|---------------------------------------------------------------------------|
B|---------------------------------------------------------------------------|
G|---------------------------------------------------------------------------|
D|---0--0--2-h3--0--0--2b__--------------------------------------------------|
A|---0--0--2-h3--0--0--2b__--------------------------------------------------|
D|---0--0--2-h3--0--0--2b__--------------------------------------------------|

e|--------------------------------------------------------------------------|
B|---0-----------0----------------------------------------------------------|
G|---0-----------0----------------------------------------------------------|
D|---0--0--2-h3--0--0--2b__-------------------------------------------------|
A|------0--2-h3-----0--2b__-------------------------------------------------|
D|------0--2-h3-----0--2b__-------------------------------------------------|

e|--------------------------------------------------------------------------|
B|--------------------------------------------------------------------------|
G|--------------------------------------------------------------------------|
D|------0--2-h3-----0--2b__-----0--2-h3----------2b__-----------------------|
A|------0--2-h3-----0--2b__-----0--2-h3--x-x--x--2b__-----------------------|
D|---0-----2-h3--0-----2b__--0-----2-h3--x-x--x--2b__-----------------------|
     .  .  .     .  .        .  .  .
E|--------------------------------------------------------------------------|
B|--------------------------------------------------------------------------|
G|--------------------------------------------------------------------------|
D|---0~ -------3------/7------\5------x-x-3-x-x-3-x-x-1-x-x-1---------------|
A|---0~ -------3------/7------\5------x-x-3-x-x-3-x-x-1-x-x-1---------------|
D|---0~ -------3------/7------\5------x-x-3-x-x-3-x-x-1-x-x-1---------------|


  .  palm mute
  b__bend
| /  slide up
| \  slide down
| h  hammer-on
| p  pull-off
| ~  vibrato
|(5)  harmonic
| x  Mute note
============================================================================
Tap to rate this tab
 
# A B C D E F G H I J K L M N O P Q R S T U V W X Y Z