Song name
# A B C D E F G H I J K L M N O P Q R S T U V W X Y Z

Pigmy Love Circus - Bone Orchard tab

----------------------------------------------------------------------------
          BONE ORCHARD - Pigmy Love Circus(www.pigmylovecircus.com)
----------------------------------------------------------------------------
Tabbed by:UsefullParabol
Email:tool462@verizon.net

Tuning:DADGBE

e|--------------------------------------------------------------------------|
B|--------------------------------------------------------------------------|
G|--------------------------------------------------------------------------|
D|---14~~~~---------13--------9\----7---------------------------------------|
A|---0-let ring--0--0--------------------0----------------------------------|
D|--------------------------------------------------------------------------|

e|--------------------------------------------------------------------------|
B|--------------------------------------------------------------------------|
G|--------------------------------------------------------------------------|
D|---12-------------10--------------7---------------------------------------|
A|---12-------------10--------------7---------------------------------------|
D|---12-------------10--------------7---------------------------------------|

 (bridge)
e|--------------------------------------------------------------------------|
B|--------------------------------------------------------------------------|
G|--------------------------------------------------------------------------|
D|---------------0-------------------------5--------------------------------|
A|---------0-----5-------------------0-----0--------------------------------|
D|---3-----3-----3-------------3-----3-----3--------------------------------|


| /  slide up
| \  slide down
| h  hammer-on
| p  pull-off
| ~  vibrato
| +  harmonic
| x  Mute note
============================================================================
Tap to rate this tab
 
# A B C D E F G H I J K L M N O P Q R S T U V W X Y Z