Song name
# A B C D E F G H I J K L M N O P Q R S T U V W X Y Z

Piknik - Day Sebia Sorvat tab

Help us improve GuitareTab! Take a short survey!
Espesially for thouse, who like this legendary band from Russia!
The band webpage: http://www.piknik.info/
Piknik on Wiki: http://en.wikipedia.org/wiki/Piknik

(This is my first tab, so, please, if something is wrong just contact me and I'll correct it)

It's the solo, which is played in the very end of the song... Indeed, the main theme is easy
to find in internet, but I've not ever seen this wonderful solo... So, enjoy!


E||-----------2----3------|--------2s--5----3--2--0--|
B||-----/5----------------|--/5----------------------|
G||-----------------------|--------------------------|
D||-----------------------|--------------------------|
A||-----------------------|--------------------------|
E||-----------------------|--------------------------|


--------2s--3----3--2--0--|--5~------------2--3--|--5--7--5--3--2------0--|
--/5----------------------|----------------------|------------------------|
--------------------------|----------------------|------------------------|
--------------------------|----------------------|------------------------|
--------------------------|----------------------|------------------------|
--------------------------|----------------------|------------------------|


-----------3s--5--7--5--|--3--7--5--3--7--------|------||
--4---------------------|-----------------------|------||
------------------------|-----------------------|------||
------------------------|-----------------------|------||
------------------------|-----------------------|------||
------------------------|-----------------------|------||


Tablature Legend
----------------
s - legato slide
/ -  slide into from below or out of upwards
~ - vibrato
Related for Day Sebia Sorvat tab