Song name
# A B C D E F G H I J K L M N O P Q R S T U V W X Y Z

Piko - Sakurane tab

ピコ
桜音
http://www.piko-piko.jp/

-----10-12-12-15-17--15-17-17-19-------------------------15-17-19-17-15-17-17-|
--12-----------------------------15-17-17--12-15-17-17-17---------------------|
------------------------------------------------------------------------------|
------------------------------------------------------------------------------|
------------------------------------------------------------------------------|
------------------------------------------------------------------------------|

--19-19-17--------------------15-17-15-17-17-19-------------19-17-15-12-10-12-|
--------------12-15-17-17-17---------------------15-17-17-15------------------|
------------------------------------------------------------------------------|
------------------------------------------------------------------------------|
------------------------------------------------------------------------------|
------------------------------------------------------------------------------|

--12------19-17-15-12-19-17---17-15-17-17-17-19-17-19------------------------|
-------15---------------------------------------------15-17------------------|
-----------------------------------------------------------------------------|
-----------------------------------------------------------------------------|
-----------------------------------------------------------------------------|
-----------------------------------------------------------------------------|
Tap to rate this tab
 
# A B C D E F G H I J K L M N O P Q R S T U V W X Y Z