Song name
# A B C D E F G H I J K L M N O P Q R S T U V W X Y Z

Pilate - Overrated tab

----------------------------------------------------------------------------
			     Overrated - Pilate
----------------------------------------------------------------------------
Tabbed by:rr21553
Email:rr21553@yahoo.ca
Tuning: standard
There is 2 guitars playing, but ill focus mainly on guitar 1.

Intro/Verse  (0:00)
e|-----------------------------------------------------------------|
B|-9---9---9---9---10--10--10--10--7---7---7---7---10--10--10--10--|
G|---9---9---9---9---9---9---9---9---9---9---9---9---9---9---9---9-| x8
D|-----------------------------------------------------------------|
A|-----------------------------------------------------------------|
E|-----------------------------------------------------------------|

Chorus    (0:52)
e|--7------8-------5------8--------|
B|--7------8-------5------8--------|
G|--9-x8---9--x8---7-x8---9--x8----|   x2
D|--9------10------7------10-------|
A|--7------10------5------10-------|
E|--7------8-------5------8--------|

Intro/Verse  (1:04)   x3

Chorus   (1:24)   x4

Bridge   (1:50)
e|--4----4-------------------------4----4-----------------------|
B|--5----5-------------------------5----5-----------------------|
G|--6----6-7----7-5---5-5555555----6----6-7----7-5---5-5555555--|
D|--4----4-7----7-5---5-5555555----4----4-7----7-5---5-5555555--|
A|--7----7-5----5-3---3-3333333----7----7-5----5-3---3-3333333--|
E|--4----4-5----5-3---3-3333333----4----4-5----5-3---3-3333333--|

e|--4----4-------------------------4----4---------------------|
B|--5----5-------------------------5----5---------------------|
G|--6----6-7----7------------------6----6-7----7-9------------|
D|--4----4-7----7------------------4----4-7----7-9-let ring---|
A|--7----7-5----5---4b5b4--3b4b3---7----7-5----5-7------------|
E|--4----4-5----5------------------4----4-5----5-7------------|

Chorus   (2:16)     x6

Ending    (2:55)
e|--4----4------------------------4----4-------------------|
B|--5----5------------------------5----5-------------------|
G|--6----6-7----7-5---5-5555555---6----6-7-----9-----------|
D|--4----4-7----7-5---5-5555555---4----4-7-----9-let ring--|
A|--7----7-5----5-3---3-3333333---7----7-5-----7-----------|
E|--4----4-5----5-3---3-3333333---4----4-5-----7-----------|

Thats all for guitar 1

During the second intro/verse guitar two mutes seven strums every so often. I never did 
timing, but you should be able to figure it out.
ex.
e|--------------|
B|--------------|
G|---xxxxxxx----|
D|---xxxxxxx----|
A|---xxxxxxx----|
E|---xxxxxxx----|

also guitar 2 starting at chorus 2 through the rest of the song plays this note.
e|-------------------------|
B|--55555555-repeat lots---|
G|-------------------------|
D|-------------------------|
A|-------------------------|
E|-------------------------|

then at 2:42, play this
e|--7-------7-------7-------7---------|
B|---5555555-5555555-5555555-5555555--|
G|------------------------------------|
D|------------------------------------|
A|------------------------------------|
E|------------------------------------|

then close to the end, play this a couple of times
e|--7-------7-------7-------7--9-97---|
B|---5555555-5555555-5555555-55-------|
G|------------------------------------|
D|------------------------------------|
A|------------------------------------|
E|------------------------------------|
thats pretty much it for guitar 2.

I know all the notes aren't exact, but it sounds pretty good to me, and im the first one 
tab it, so its alot better than nothing.
Tap to rate this tab
 
# A B C D E F G H I J K L M N O P Q R S T U V W X Y Z