Pilate - Into Your Hideout tab

a little more in depth here, and im sertain the solo is much closer (if not right)

Guitar 1: (Standard EADGBe) Electric, slight distortion)
Guitar 2: (Standard EADGBe) Acoustic


Lead/Intro Riff (Guitar 1):

Play 3x
e|------------------------------------------------------------------|
B|------------------------------------------------------------------|
G|---9--9-99-9-11-9---9-99-9-11-------------------------------------|
D|---9--9-99-9-11-9---9-99-9-11-12--12-12-12-12-x-11--11-11--11-12--|
A|---7--7-77-7-9--7---7-77-7-9--12--12-12-12-12-x-12--12-12--12-12--|
E|------------------------------10--10-10-10-10-x-9---9--9---9--10--|

Intro/Verse (Guitar 2):
(Straight quarter strumming)
play 2nd Time during intro, repeat                          (on last
       G                        D                 A           beat)
e|--0----0----------------------2-----------------0--------------0--|
B|--3----0----------------------3-----------------2--------------3--|
G|--0-or-4----------------------2-----------------2--------------2--|
D|--0----5----------------------0-----------------2--------------2--|
A|--2----5----------------------------------------0--------------0--|
E|--3----3----------------------------------------------------------|

Chorus (I'm gonna tear..):
Guitar 1 (clean) 2x:
e|-----0------0---0-0-0h2--0---------0--------0----------------|
B|--3------3----3-----------------3-----3--2-----3-2h3-2-------|
G|-------------------------------------------------------------|
D|-------------------------------------------------------------|
A|-------------------------------------------------------------|
E|-------------------------------------------------------------|
     (stole       into     your    hideout)
e|----3-----------3--------5-------5-----|
B|----3-----------3--------7-------5-----|
G|----4-----------4--------7-------6-----|
D|----5-----------5--------7-------7-----|
A|----5-----------5--------5-------7-----|
E|----3-----------3----------------5-----|

Guitar 2 (continue same chords 2x)

3rd time there is a rhythm change on chords
      (Triplet Feel)
And I stole into your Hideout
      G     G    D    A

Guitar 1: Play intro once

Verse 2 (Guitar 2, same as verse 1)
  Guitar 1: (clean)
e|--3~-----2~-----2--3--2--0~-------|
B|--3~-----3~-----3~-------2~-------|
G|--0~-----0~-----2~-------2~-------|
D|--0~-----0~-----0~-------2~-------|
A|--2~-----2~--------------0~-------|
E|--3~------------------------------|

Chorus  1x

Post Chorus:
Guitar 1:
   (hideout.....)
e|----------------------------------|
B|----------------------------------|
G|----------------------------------|
D|----------------------------------|
A|--7-7-7-7-7-7-7-7-7-7-7-7-7-7-7-7-|
E|--5-5-5-5-5-5-5-5-5-5-5-5-5-5-5-5-|

  (And it's cold there..)
e|----------3----5----|
B|----------3----5----|
G|----------4----6----|
D|----------5----7----|
A|----------5----7----|
E|----------3----5----|


Presolo:
Guitar 1 (distortion) 2x
  (triplet struming is your friend!)
    (now!)
e|----------------------------------------------------------------|
B|--12---12-12-12----12---12-------12---12-12-12----12---13-------|
G|--12---12-12-12----12---12-------12---12-12-12----12---12-------|
D|--12---12-12-12----12---12-------12---12-12-12----12---12-------|
A|--10---10-12-10----10---10-------10---10-10-10----10---10-------|
E|----------------------------------------------------------------|

e|--10---10-10-10----10---10--------------------------------------|
B|--10---10-10-10----10---10-------14---14-14-14---14-14-15-14----|
G|--11---11-11-11----11---11-------14---14-14-14---14-14-14-14----|
D|--12---12-12-12----12---12-------14---14-14-14---14-14-14-14----|
A|--12---12-12-12----12---12-------12---12-12-12---12-12-12-12----|
E|--10---10-10-10----10---10--------------------------------------|

Solo:
Guitar 1 (Distortion)
Guitar 2: (Chords for verses)
e|----------------------------------------------------------------|
B|---7-----5-----7------5-----7----5------------------------------|
G|-----7-----7-----7------7-----7-----b6---6b7r6--4----6b7r6------|
D|---------------------------------------------------7-------7----|
A|----------------------------------------------------------------|
E|----------------------------------------------------------------|

e|----------------------------------------------------------------|
B|---7-----5-----7------5-----8--7--5---5-------------------------|
G|-----7-----7-----7------7-------------6b7-----------------------|
D|----------------------------------------------------------------|
A|----------------------------------------------------------------|
E|----------------------------------------------------------------|

Bridge:
Guitar 1 (clean)
Guitar 2: nothing

e|-------------10~-----14~------------------10~-----14~---|
B|---12~------------------------12~-----------------------|
G|--------11~------------------------11~------------------|
D|--------------------------------------------------------|
A|--------------------------------------------------------|
E|--------------------------------------------------------|

Guitar 1, play intro  2x
Verse 3 (same..again) 1x

Final Chorus:
Guitar 2: repeat 1st chorus
Guitar 1: play intro 2x, then:
e|--10-10-10-10-10-10-10-10-10-10-10-10-9-9-9-9-------------------|
B|--x--x--x--x--x--x--x--x--10-10-8--7--x-x-x-x-------------------|
G|--7--7--7--7--7--7--7--7--------------9-9-9-9-------------------|
D|----------------------------------------------------------------|
A|----------------------------------------------------------------|
E|----------------------------------------------------------------|

Repeat that several times, then,
end on:

And I stole into your Hideout
      G     G    D    A

Please rate =]
Tap to rate this tab
 
# A B C D E F G H I J K L M N O P Q R S T U V W X Y Z