Song name
# A B C D E F G H I J K L M N O P Q R S T U V W X Y Z

Pillar - I Fade Away tab

 THis is my first tab so i may be wrong on some notes
                     Enjoy

|-------------------------------------------------------------------------|
|-------------------------------------------------------------------------|
|11-11-10-10-9-9-10-10---------------------11-11-10-10-9-9----------------|
|---------------------11-11-10-10-9-9-10-10-------------------------------|
|-------------------------------------------------------------------------|
|-------------------------------------------------------------------------|


|-------------------------------------------------------------------------|
|-------------------------------------------------------------------------|
|-11-11-10-10-11-11-10-10-------------------------------------------------|
|-------------------------------------------------------------------------|
|-------------------------------------------------------------------------|
|-------------------------------------------------------------------------|

Repeat that 10 times
       
       Then
|-------------------------------------------------------------------------|
|-------------------------------------------------------------------------|
|----------7-7-7-7-7-7-7-7-7/5--5-5-5-5-5-5-5-5-5-------------------------|
|--4/7-7-7-5-5-5-5-5-5-5-5-5/3--3-3-3-3-3-3-3-3-3-------------------------|
|--2/5-5-5----------------------------------------------------------------|
|-------------------------------------------------------------------------|

repeat that 5 times


|-------------------------------------------------------------------------|
|-------------------------------------------------------------------------|
|11-11-10-10-9-9-10-10---------------------11-11-10-10-9-9----------------|
|---------------------11-11-10-10-9-9-10-10-------------------------------|
|-------------------------------------------------------------------------|
|-------------------------------------------------------------------------|


|-------------------------------------------------------------------------|
|-------------------------------------------------------------------------|
|-11-11-10-10-11-11-10-10-------------------------------------------------|
|-------------------------------------------------------------------------|
|-------------------------------------------------------------------------|
|-------------------------------------------------------------------------|

Repeat that 10 times

|-------------------------------------------------------------------------|
|-------------------------------------------------------------------------|
|----------7-7-7-7-7-7-7-7-7/5--5-5-5-5-5-5-5-5-5-------------------------|
|--4/7-7-7-5-5-5-5-5-5-5-5-5/3--3-3-3-3-3-3-3-3-3-------------------------|
|--2/5-5-5----------------------------------------------------------------|
|-------------------------------------------------------------------------|

repeat that 5 times



    Thats it, so feel free to comment on it
Tap to rate this tab
# A B C D E F G H I J K L M N O P Q R S T U V W X Y Z