Song name
# A B C D E F G H I J K L M N O P Q R S T U V W X Y Z

Pillar - Above tab

Band- Pillar
Song- Above

Verse							    Chorus
e|---------7-7-------------------7-7-7-7-5-5-|-------------------------------|
B|-10-10-9-9-9-4-4-7-7---10-10-9-9-9-4-4-6-6-|-------------------------------|
G|-------------4-4-7-7-----------------------|-------------------------------|
D|-------------------------------------------|-------------------------------|
A|-------------------------------------------|-7~--------------------------2-|
E|-------------------------------------------|---5-7-4b5r4-4-4-5-7-4-5-4-2-0-|

Break Down						 Interlude
e|---x-------------------x----------------|----------------------------------|
B|----x-------------------x---------------|----------------------------------|
G|-----x------6------------x------6-------|---------------11~----------------|
D|-4----x--2--6---5-4--4----x--2--6---5-4-|--4h5p4-4hp5h4-----4h5p4-4h5p4----|
A|-4-------2--4---5-4--4-------2--4---5-4-|-------------------------------6--|
E|-2-------0------3-2--2-------0------3-2-|----------------------------------|
Tap to rate this tab
# A B C D E F G H I J K L M N O P Q R S T U V W X Y Z