Song name
# A B C D E F G H I J K L M N O P Q R S T U V W X Y Z

Pillar - Underneath It All tab

Band- Pillar
Song- Underneath it All

Intro/verse

  d----------------------------------------------------------------|
  a----------------------------------------------------------------|
  f----------------------------------------------------------------|
  c----0-1-0--1-0---0-1-0--1-0---0-1-0--1-0---0-1-0---10-10-10-10--|
  g----0-1-0--1-0---0-1-0--1-0---0-1-0--1-0---0-1-0---10-10-10-10--|
  c----0-1-0--1-0---0-1-0--1-0---0-1-0--1-0---0-1-0---10-10-10-10--|

  d----------------------------------------------------------------|
  a----------------------------------------------------------------|
  f----------------------------------------------------------------|
  c----0-1-0--1-0---0-1-0--1-0---0-1-0--1-0----4-4-4-4--3-3-3-3----|
  g----0-1-0--1-0---0-1-0--1-0---0-1-0--1-0----4-4-4-4--3-3-3-3----|
  c----0-1-0--1-0---0-1-0--1-0---0-1-0--1-0----4-4-4-4--3-3-3-3----|


  Chours


  d-------------------------------------------------------------|
  a-------------------------------------------------------------|
  f-------------------------------------------------------------|
  c---0-0---7--10--8--5---0-0--7--10--8---5--3------------------|
  g---0-0---7--10--8--5---0-0--7--10--8---5--3------------------|
  c---0-0---7--10--8--5---0-0--7--10--8---5--3------------------|


  Bridge


  d-------------------------------------------------------------|
  a-------------------------------------------------------------|
  f-------------------------------------------------------------|
  c----0-1--0-1--0-1--------------------------------------------|
  g----0-1--0-1--0-1--------------------------------------------|
  c----0-1--0-1--0-1--------------------------------------------|
Tap to rate this tab
 
# A B C D E F G H I J K L M N O P Q R S T U V W X Y Z