Song name
# A B C D E F G H I J K L M N O P Q R S T U V W X Y Z

Pillar - Everything tab

Song: Everything
Band: Pillar
Album: The Reckoning
Tuning: Drop C (Low to high - CGCFAD)


Intro
|-------------------------------------------------------------------------------------------|
|-------------------------------------------------------------------------------------------|
|-------------------------------------------------------------------------------------------|
|-------------------------------------------------------------------------------------------|
|---3/5---------3------3/5---------3---0-0----3/5---------3------3/5---------3--3-3--3-3----|
|-------0-3-5-3---0--------0-3-5-3---0-0-0--------0-3-5-3---0--------0-3-5-3----------------|

Verse
|-------------------------------------------------------------------------------------------|
|-------------------------------------------------------------------------------------------|
|-----7~---5~---7~---5~---7~---5~---7~---10b12----7~---5~---7~---5~---10b12-8--7~---5~------|
|-------------------------------------------------------------------------------------------|
|-------------------------------------------------------------------------------------------|
|-------------------------------------------------------------------------------------------|

Chorus
|--------------------------------------------------------------------------------------------------|
|--------------------------------------------------------------------------------------------------|
|--------------------------------------------------------------------------------------------------|
|---10-10-10-10-10-10-10--10-10-10-10-10-10-10--8--8--8--8--8--8--8--------------------------------|
|---8--8--8--8--8--8--8---7--7--7--7--7--7--7---5--5--5--5--5--5--5---------8-8-8-------5--5-3-0---|
|---8--8--8--8--8--8--8---7--7--7--7--7--7--7---5--5--5--5--5--5--5---0-0-0-------0-0-0------------|

|------------------------------------------------------------------------------------------------|
|------------------------------------------------------------------------------------------------|
|------------------------------------------------------------------------------------------------|
|---10-10-10-10-10-10-10--10-10-10-10-10-10-10--8--8--8--8--8--8--8--8--8--8--8--8--8--8--8--8---|
|---8--8--8--8--8--8--8---7--7--7--7--7--7--7---5--5--5--5--5--5--5--5--5--5--5--5--5--5--5--5---|
|---8--8--8--8--8--8--8---7--7--7--7--7--7--7---5--5--5--5--5--5--5--5--5--5--5--5--5--5--5--5---|

Intro 1x
Verse 1x
Chorus 1x

Bridge  (Back of the volume on the guitar to get like a crunchy/clean sound, thats how 
does it live, and it sounds better)
|------------------------------------------------------------------------------------|
|------------------------------------------------------------------------------------|
|------------------------------------------------------------------------------------|
|---10~--10~--8~--7~---10~--10~-----8--8--8--8--8--8--8--8--8--8--8--8--8--8--8--8---|
|---8~---7~---5~--0~---8~---7~------5--5--5--5--5--5--5--5--5--5--5--5--5--5--5--5---|
|---8~---7~---5~--0~---8~---7~------5--5--5--5--5--5--5--5--5--5--5--5--5--5--5--5---|
                                ^
                     Bring volume up on guitar
Chorus (Instead of doing the little lead at the end of the first half of the chorus, 
strumming that chord right before it!)
Intro till end

First tab, enjoy, don't brutal.  God bless you all.
Tap to rate this tab
# A B C D E F G H I J K L M N O P Q R S T U V W X Y Z