Song name
# A B C D E F G H I J K L M N O P Q R S T U V W X Y Z

Pillar - Revolution tab

pillar
revolution
Tuning Drop C

intro:
|--------------------------------------------------------------------------------------------------------------|
|--------------------------------------------------------------------------------------------------------------|
|--------------------------------------------------------------------------------------------------------------|
|--------------------------------------------------------------------------------------------------------------|2x
|000005p00007p008p0003p0-000005p00007p008p0003p0-000005p00007p008p0003p0-000005p0--xxx10xxx10xxx10h12----------|
|--------------------------------------------------------------------------------------------------------------|

Verse
|----------------------------------------------------------------------------------|
|----------------------------------------------------------------------------------|
|----------------------------------------------------------------------------------|
|-----10---9-12-10---10h11------------10---9-9/12-12/14----------------------------|
|10h12--------------------12-----10h12---------------------12----------------------|
|----------------------------------------------------------------------------------|

They play this in the background along with the verse the 2nd time...                         
*************************listen carefully****************************
|----------------------------------------------------------------------------------|
|----------------------------------------------------------------------------------|
|----------------------------------------------------------------------------------|
|-----10--------10--------12--------12--------10--------10--------14--------14-----|
|10h12-----10h12-----10h12-----10h12-----10h12-----10h12-----10h12-----10h12-------|
|----------------------------------------------------------------------------------|
Tap to rate this tab
 
# A B C D E F G H I J K L M N O P Q R S T U V W X Y Z