Song name
# A B C D E F G H I J K L M N O P Q R S T U V W X Y Z

Pillar - Reckoning tab

Intro

D------------------------------------------------|
A------------------------------------------------|
F------------------------------------------------|
C--3b--0-0--3b--0-0--3b--0-0--3b--0-0--3b--0-----|
G----------------------------------------------3-|
C------------------------------------------------|

D-------------------------------------------------|
A-------------------------------------------------|
F-------------------------------------------------|
C--3b--0-0--3b--0-0--7--0-0--3b--0-0--3b--0-------|
G----------------------------------------------3b-|
C-------------------------------------------------|

D------------------------------------------------|
A------------------------------------------------|
F------------------------------------------------|
C--0-3b--0-0--3b--0-0--3b--0-0--3b--0-0--3b--0---|
G----------------------------------------------3-|
C------------------------------------------------|

D------------------------------------------------|
A------------------------------------------------|
F------------------------------------------------|
C--3b--0-0--3b--0-0------------------------------|
G------------------------------------------------|
C--------------------3p0-0-5p0--5b---------------|

D------------------------------------------------|
A------------------------------------------------|
F------------------------------------------------|
C--3b--0-0--3b--0-0--3b--0-0--3b--0-0--3b--0-----|
G----------------------------------------------3-|
C------------------------------------------------|

D-------------------------------------------------|
A-------------------------------------------------|
F-------------------------------------------------|
C--3b--0-0--3b--0-0--7--0-0--3b--0-0--3b--0-------|
G----------------------------------------------3b-|
C-------------------------------------------------|

D------------------------------------------------|
A------------------------------------------------|
F------------------------------------------------|
C--0-3b--0-0--3b--0-0--3b--0-0--3b--0-0--3b--0---|
G----------------------------------------------3-|
C------------------------------------------------|

D------------------------------------------------|
A------------------------------------------------|
F------------------------------------------------|
C------------------------------------------------|
G------------------------------------------------|
C--13p0-0--12p0-0--10p0-0--3p0-0--5b-------------|

Verse

D------------------------------------------------|
A------------------------------------------------|
F------------------------------------------------|
C------------------------------------------------|
G------------------------------------------------|
C--5b--5--3--5b--5--3--0--0--3--5--5b--5--3------|

D------------------------------------------------|
A------------------------------------------------|
F------------------------------------------------|
C------------------------------------------------|
G--3-----5---------------------------------------|
C----3-0----0--3--5--5b--5--3--------------------|

D--------------------------------------------------|
A--------------------------------------------------|
F--------------------------------------------------|
C--------------------------------------------------|
G--------------------------------------------------|
C----5b--5--3--0--0--3--5--5b--5--3--5b-5-5-5-5-5--|

Pre-chorus

D----------------------------|
A--10--10--10--10------------|
F--12b-12b-12b-12b--10-------|
C-----------------------12---|
G----------------------------|
C----------------------------|

Chorus

D------------------------------------------------|
A------------------------------------------------|
F------------------------------------------------|
C--3b--0-0--3b--0-0--3b--0-0--3b--0-0--3b--0-----|
G----------------------------------------------3-|
C------------------------------------------------|

D-------------------------------------------------|
A-------------------------------------------------|
F-------------------------------------------------|
C--3b--0-0--3b--0-0--7--0-0--3b--0-0--3b--0-------|
G----------------------------------------------3b-|
C-------------------------------------------------|

D------------------------------------------------|
A------------------------------------------------|
F------------------------------------------------|
C--0-3b--0-0--3b--0-0--3b--0-0--3b--0-0--3b--0---|
G----------------------------------------------3-|
C------------------------------------------------|

D------------------------------------------------|
A------------------------------------------------|
F------------------------------------------------|
C--3b--0-0--3b--0-0------------------------------|
G------------------------------------------------|
C--------------------3p0-0-5p0--5b---------------|

D------------------------------------------------|
A------------------------------------------------|
F------------------------------------------------|
C--3b--0-0--3b--0-0--3b--0-0--3b--0-0--3b--0-----|
G----------------------------------------------3-|
C------------------------------------------------|

D-------------------------------------------------|
A-------------------------------------------------|
F-------------------------------------------------|
C--3b--0-0--3b--0-0--7--0-0--3b--0-0--3b--0-------|
G----------------------------------------------3b-|
C-------------------------------------------------|

D------------------------------------------------|
A------------------------------------------------|
F------------------------------------------------|
C--0-3b--0-0--3b--0-0--3b--0-0--3b--0-0--3b--0---|
G----------------------------------------------3-|
C------------------------------------------------|

D------------------------------------------------|
A------------------------------------------------|
F------------------------------------------------|
C------------------------------------------------|
G------------------------------------------------|
C--13p0-0--12p0-0--10p0-0--3p0-0--5b-------------|

Verse

Pre-Chorus

Chorus

D------------------------------------------------|
A------------------------------------------------|
F------------------------------------------------|
C--3b--0-0--3b--0-0--3b--0-0--3b--0-0--3b--0-----|
G----------------------------------------------3-|
C------------------------------------------------|

D-------------------------------------------------|
A-------------------------------------------------|
F-------------------------------------------------|
C--3b--0-0--3b--0-0--7--0-0--3b--0-0--3b--0-------|
G----------------------------------------------3b-|
C-------------------------------------------------|

D------------------------------------------------|
A------------------------------------------------|
F------------------------------------------------|
C--0-3b--0-0--3b--0-0--3b--0-0--3b--0-0--3b--0---|
G----------------------------------------------3-|
C------------------------------------------------|

D------------------------------------------------|
A------------------------------------------------|
F------------------------------------------------|
C--3b--0-0--3b--0-0------------------------------|
G------------------------------------------------|
C--------------------3p0-0-5p0--5b---------------|

D------------------------------------------------|
A------------------------------------------------|
F------------------------------------------------|
C--3b--0-0--3b--0-0--3b--0-0--3b--0-0--3b--0-----|
G----------------------------------------------3-|
C------------------------------------------------|

D-------------------------------------------------|
A-------------------------------------------------|
F-------------------------------------------------|
C--3b--0-0--3b--0-0--7--0-0--3b--0-0--3b--0-------|
G----------------------------------------------3b-|
C-------------------------------------------------|

D------------------------------------------------|
A------------------------------------------------|
F------------------------------------------------|
C--0-3b--0-0--3b--0-0--3b--0-0--3b--0-0--3b--0---|
G----------------------------------------------3-|
C------------------------------------------------|

D-------------------------------|
A-------------------------------|
F-------------------------------|
C--12-10-7-10-5-7-5-------------|
G--------------------8-7-5------|
C-------------------------------|

Bridge

D-----------------------------------------|
A-----------------------------------------|
F-----------------------------------------|
C-----0-------0------3h5p3h5p3h5p3h5------|
G--5--0----5--0--3-5----------------------|
C-----0-------0---------------------------|

D-----------------------------------------|
A-----------------------------------------|
F-----------------------------------------|
C-----0----------3--0---------------------|
G--5--0----5--3--3--0---------------------|
C-----0----------3--0---------------------|

D-----------------------------------------|
A-----------------------------------------|
F-----------------------------------------|
C-----0-------0------3h5p3h5p3h5p3h5------|
G--5--0----5--0--3-5----------------------|
C-----0-------0---------------------------|

D-----------------------------------------|
A-----------------------------------------|
F-----------------------------------------|
C-----0----------3--0---------------------|
G--5--0----5--3--3--0---------------------|
C-----0----------3--0---------------------|

Pre-Chorus

D------------------------------------------------|
A------------------------------------------------|
F------------------------------------------------|
C--3b--0-0--3b--0-0--3b--0-0--3b--0-0--3b--0-----|  x4
G----------------------------------------------3-|
C------------------------------------------------|
 PM  PM  PM  PM  PM  PM  PM  PM  PM  PM  PM  PM

Chorus

D------------------------------------------------|
A------------------------------------------------|
F------------------------------------------------|
C--3b--0-0--3b--0-0--3b--0-0--3b--0-0--3b--0-----|
G----------------------------------------------3-|
C------------------------------------------------|

D-------------------------------------------------|
A-------------------------------------------------|
F-------------------------------------------------|
C--3b--0-0--3b--0-0--7--0-0--3b--0-0--3b--0-------|
G----------------------------------------------3b-|
C-------------------------------------------------|

D------------------------------------------------|
A------------------------------------------------|
F------------------------------------------------|
C--0-3b--0-0--3b--0-0--3b--0-0--3b--0-0--3b--0---|
G----------------------------------------------3-|
C------------------------------------------------|

D------------------------------------------------|
A------------------------------------------------|
F------------------------------------------------|
C--3b--0-0--3b--0-0------------------------------|
G------------------------------------------------|
C--------------------3p0-0-5p0--5b---------------|

D------------------------------------------------|
A------------------------------------------------|
F------------------------------------------------|
C--3b--0-0--3b--0-0--3b--0-0--3b--0-0--3b--0-----|
G----------------------------------------------3-|
C------------------------------------------------|

D-------------------------------------------------|
A-------------------------------------------------|
F-------------------------------------------------|
C--3b--0-0--3b--0-0--7--0-0--3b--0-0--3b--0-------|
G----------------------------------------------3b-|
C-------------------------------------------------|

D------------------------------------------------|
A------------------------------------------------|
F------------------------------------------------|
C--0-3b--0-0--3b--0-0--3b--0-0--3b--0-0--3b--0---|
G----------------------------------------------3-|
C------------------------------------------------|

D------------------------------------------------|
A------------------------------------------------|
F------------------------------------------------|
C------------------------------------------------|
G------------------------------------------------|
C--13p0-0--12p0-0--10p0-0--3p0-0--5b-------------|

Outro

D------------------------------------------------|
A------------------------------------------------|
F------------------------------------------------|
C---3b--0-0--3b--0--0------3b--0-0--3b--0--0-----| x4
G------------------------------------------------|
C------------------------------------------------|
Tap to rate this tab
# A B C D E F G H I J K L M N O P Q R S T U V W X Y Z