Song name
# A B C D E F G H I J K L M N O P Q R S T U V W X Y Z

Pillar - Call To Action tab

Call To Action  Pillar
Tabbed by Ryan Lee
YouTube: Krypton975
Tuning: Drop C

Legend:
\ = slide
p = pull-off
h = hammer-on
x = mute note

Song Order:
Intro
Verse
Chorus
Verse x1/2
Chorus
Bridge 1
Chorus
Bridge 2
Verse

Intro

D|----------------------------------|
A|----------------------------------|
F|----------------------------------|  x2
C|----------------3p0----3\5--------|
G|------3\5-55----------------------|
C|-0-0---------00-----00------------|

D|----------------------------------|
A|----------------------------------|
F|----------------5p0----5\7--------|  x4
C|------5\7-77----3p0----3\5--------|
G|-0-0--3\5-55-00-----00------------|
C|-0-0---------00-----00------------|

D|----------------------------------|
A|----------------------------------|
F|------5\7-77----5p0----5\7--------|  x3
C|-0-0--5\7-77-00-3p0-00-5\7--------|
G|-0-0--3\5-55-00-----003\5--------|
C|-0-0---------00-----00------------|

D|----------------------------------|
A|----------------------------------|
F|------5\7-77---3---5--------------|  x1
C|-0-0--5\7-77---3---5--------------|
G|-0-0--3\5-55---1---3--------------|
C|-0-0------------------------------|


Verse

D|----------------------------------|
A|----------------------------------|
F|------5\7-77----5p0----5\7--------|  x3
C|-0-0--5\7-77-00-3p0-00-5\7--------|
G|-0-0--3\5-55-00-----003\5--------|
C|-0-0---------00-----00------------|

D|----------------------------------|
A|----------------------------------|
F|------5\7-77---3---5--------------|  x1
C|-0-0--5\7-77---3---5--------------|
G|-0-0--3\5-55---1---3--------------|
C|-0-0------------------------------|

D|----------------------------------|
A|----------------------------------|
F|------5\7-77----5p0----5\7--------|  x3
C|-0-0--5\7-77-00-3p0-00-5\7--------|
G|-0-0--3\5-55-00-----003\5--------|
C|-0-0---------00-----00------------|


Pre-Chorus

D|-------|
A|-------|
F|-3-----| x 8
C|-3-----|
G|-1-----|
C|-------|

D|-------|
A|-------|
F|-7-----| x 8
C|-7-----|
G|-5-----|
C|-------|

D|-------|
A|-------|
F|-3-----| x 8
C|-3-----|
G|-1-----|
C|-------|

D|-------|
A|-------|
F|-5-----| x 8
C|-5-----|
G|-3-----|
C|-------|


Chorus

D|-------|
A|-------|
F|-7-----| x 8
C|-7-----|
G|-5-----|
C|-0-----|

D|-------|
A|-------|
F|-3-----| x 8
C|-3-----|
G|-1-----|
C|-------|

D|-------|
A|-------|
F|-------| x 8
C|-5-----|
G|-5-----|
C|-5-----|

D|-------|
A|-------|
F|-3-----| x 8
C|-3-----|
G|-1-----|
C|-------|

(Bass Solo)

D|------------------|
A|------------------|
F|-----33-5---------|
C|-xx0-33-5---------|
G|-xx0-11-3---------|
C|-xx0--------------|


Bridge 1

D|-----------------|
A|-----------------|
F|-----------------|
C|-0-0--0--0-0-0--|
G|-0-0--0--0-0-0--|
C|-0-0--0-0--0-0--|

D|-----------------|
A|-----------------|
F|-0h3-3--3---3\5--|
C|-0h3-30-30--3\5--|
G|-0h1-10-10--1\3--|
C|------0--0-------|

D|-----------------|
A|-----------------|
F|-----------------|
C|-0-0--0--0-0-0--|
G|-0-0--0--0-0-0--|
C|-0-0--0-0--0-0--|

D|-----------------|
A|-----------------|
F|----5------------|
C|-xx-5--3---------|
G|-xx-3--3---------|
C|-xx----3---------|

D|-----------------|
A|-----------------|
F|-----------------|
C|-0-0--0--0-0-0--|
G|-0-0--0--0-0-0--|
C|-0-0--0-0--0-0--|

D|-----------------|
A|-----------------|
F|-0h3-3--3---3\5--|
C|-0h3-30-30--3\5--|
G|-0h1-10-10--1\3--|
C|------0--0-------|

D|-----------------|
A|-----------------|
F|-----------------|
C|-0-0--0--0-0-0--|
G|-0-0--0--0-0-0--|
C|-0-0--0-0--0-0--|

D|-----------------|
A|-----------------|
F|----5------------|
C|-xx-5--3---------|
G|-xx-3--3---------|
C|-xx----3---------|


(Bass Solo)

D|------------------|
A|------------------|
F|----3-3-----------|
C|-xx03-3-----------|
G|-xx01-1-----------|
C|-xx0--------------|


Bridge 2

D|-------|
A|-------|
F|-5-----| x16
C|-5-----|
G|-3-----|
C|-------|

D|-------|
A|-------|
F|-3-----| x16
C|-3-----|
G|-1-----|
C|-------|
Tap to rate this tab
# A B C D E F G H I J K L M N O P Q R S T U V W X Y Z