Song name
# A B C D E F G H I J K L M N O P Q R S T U V W X Y Z

Pillar - Secrets And Regrets tab

SECRETS AND REGRETS
As recorded by Pillar
(From the 2009 Album CONFESSIONS)
	Words and Music by Pillar

Gtr I (C G C F A D) - 'either clean, solo, or the cool thing'
Gtr II (C G C F A D) - 'distortion'
Favorite song off the new album confessions
  Gtr I
K so this riff is actually played by two guitars but I managed to put it into one for 
and it sounds fine
INTRODUCTION
|----------------------|--------------------|
|----------------------|--------------------|
|-9-9-9-10-10-10-10----|--------------------|
|-7-7-7--7--7--7--7-10-|-10-10-10-8-8-8-8-8-|
|-0-0-0--0--0--0--0--8-|--8--8--8-8-8-8-8-8-|
|-0-0-0--0--0--0--0--8-|--8--8--8-8-8-8-8-8-|


|-------------------------|--------------------------|
|----------10-10-10-10----|--------------------------|
|-12-12-12--x--x--x--x----|--------------------------|
|-10-10-10-10-10-10-10-12-|-12-12-12-14-14-14-14-14--|
|--8--8--8--8--8--8--8-10-|-10-10-10-10-10-12-12-12--|
|----------------------10-|-10-10-10-10-10-11-11-11--|


|----------------------|--------------------|
|----------------------|--------------------|
|-9-9-9-10-10-10-10----|--------------------|
|-7-7-7--7--7--7--7-10-|-10-10-10-8-8-8-8-8-|
|-0-0-0--0--0--0--0--8-|--8--8--8-8-8-8-8-8-|
|-0-0-0--0--0--0--0--8-|--8--8--8-8-8-8-8-8-|


|-------------------------|---------|
|----------10-10-10-10----|---------|
|-12-12-12----------------|---------|
|-10-10-10-10-10-10-10-12-|-(12)----|
|--8--8--8--8--8--8--8-10-|-(10)----|
|----------------------10-|-(10)----|

Im not sure about the effects on guitar one for this.

|-------8----8-10----8-|-(8)-----8----8-10-------|
|---/10---10------10---|-----/10---10------10----|
|----------------------|----------------------12-|
|----------------------|-------------------------|
|----------------------|-------------------------|
|----------------------|-------------------------|
|
| Gtr II
|----------------------|-------------------------|
|----------------------|-------------------------|
|----------------------|-------------------------|
|-0---0-0--0-0--0--0-8-|-(8)---8-8--8-8--8--8--8-|
|-0---0-0--0-0--0--0-8-|-(8)---8-8--8-8--8--8--8-|
|-0---0-0--0-0--0--0-8-|-(8)---8-8--8-8--8--8--8-|


|---------8-----8-10----13-|-(13)-12----10-------10----|-13--12----------|
|----/10----10-------10----|------------------13-------|---------13--10--|
|--------------------------|------------------------12-|-----------------|
|--------------------------|---------------------------|-----------------|
|--------------------------|---------------------------|-----------------|
|--------------------------|---------------------------|-----------------|
|
|--------------------------|---------------------------|-----------------|
|--------------------------|---------------------------|-----------------|
|-10--10-10-10-10-10-10----|---------------------------|-----------------|
|-10--10-10-10-10-10-10-10-|-(10)-10-10-10-10-10-10-10-|-----------------|
|--8---8--8--8--8--8--8-10-|-(10)-10-10-10-10-10-10-10-|-----------------|
|-----------------------10-|-(10)-10-10-10-10-10-10-10-|-----------------|

VERSE
|----------------------|--------------------|
|----------------------|--------------------|
|-9-9-9-10-10-10-10----|--------------------|
|-7-7-7--7--7--7--7-10-|-10-10-10-8-8-8-8-8-|
|-0-0-0--0--0--0--0--8-|--8--8--8-8-8-8-8-8-|
|-0-0-0--0--0--0--0--8-|--8--8--8-8-8-8-8-8-|


|-------------------------|-------------------------|
|----------10-10-10-10----|-------------------------|
|-12-12-12----------------|-------------------------|
|-10-10-10-10-10-10-10-12-|-12-12-12-14-14-14-14-14-|
|--8--8--8--8--8--8--8-10-|-10-10-10-10-10-12-12-12-|
|----------------------10-|-10-10-10-10-10-11-11-11-|


CHORUS
|-------8----8-10----8-|-(8)-----8----8-10-------|
|---/10---10------10---|-----/10---10------10----|
|----------------------|----------------------12-|
|----------------------|-------------------------|
|----------------------|-------------------------|
|----------------------|-------------------------|
|
|----------------------|-------------------------|
|----------------------|-------------------------|
|----------------------|-------------------------|
|-0---0-0--0-0--0--0-8-|-(8)---8-8--8-8--8--8--8-|
|-0---0-0--0-0--0--0-8-|-(8)---8-8--8-8--8--8--8-|
|-0---0-0--0-0--0--0-8-|-(8)---8-8--8-8--8--8--8-|


|---------8-----8-10----13-|-(13)-12----10-------10----|
|----/10----10-------10----|------------------13-------|
|--------------------------|------------------------12-|
|--------------------------|---------------------------|
|--------------------------|---------------------------|
|--------------------------|---------------------------|
|
|--------------------------|---------------------------|
|--------------------------|---------------------------|
|-10--10-10-10-10-10-10----|---------------------------|
|-10--10-10-10-10-10-10-10-|-(10)-10-10-10-10-10-10-10-|
|--8---8--8--8--8--8--8-10-|-(10)-10-10-10-10-10-10-10-|
|-----------------------10-|-(10)-10-10-10-10-10-10-10-|


|-------------|-----------------|-------------------------|
|-------------|-----------------|-------------------------|
|-------------|-----------------|-------------------------|
|-------------|-----------------|-------------------------|
|-------------|-----------------|-------------------------|
|-------------|-----------------|-------------------------|
|
| Gtr II
|-------------|-----------------|-------------------------|
|-------------|-----------------|-------------------------|
|-------------|-----------------|-------------------------|
|-8--8--8--8--|-10--10--10--10--|-10-10-10-10-10-10-10-10-|
|-8--8--8--8--|--8---8---8---8--|-10-10-10-10-10-10-10-10-|
|-8--8--8--8--|--7---7---7---7--|-10-10-10-10-10-10-10-10-|


|-------------------------|-------8----8-10----8-|
|-------------------------|---/10---10------10---|
|-------------------------|----------------------|
|-------------------------|----------------------|
|-------------------------|----------------------|
|-------------------------|----------------------|
|
|-------------------------|----------------------|
|-------------------------|----------------------|
|-------------------------|----------------------|
|-10-10-10-10-10-10-10-10-|-0---0-0--0-0--0--0-8-|
|-10-10-10-10-10-10-10-10-|-0---0-0--0-0--0--0-8-|
|-10-10-10-10-10-10-10-10-|-0---0-0--0-0--0--0-8-|

Little guitar interlude
|--------------------------|------------------------|---------------------|
|-10----(10)-10b11r(10)----|------------------------|---------------------|
|-----------------------12-|-(12)---12b13r(12)-10---|-(10)-10-12-9----(9)-|
|--------------------------|------------------------|---------------------|
|--------------------------|------------------------|---------------------|
|--------------------------|------------------------|---------------------|

Go back and play the verse and chorus again.

Guitar Solo
    PM-------------------------------------------------------|
|-----------------|---------------|--------------13----------|
|-----------------|---------------|-/15-15-13-15----13-15----|
|-----------------|---------------|--------------------------|
|-3---------------|-----------5-5-|--------------------------|
|-3-3-3-3-3-3-3-3-|-5-5-5-5-5-5-5-|--------------------------|
|-3-3-3-3-3-3-3-3-|-5-5-5-5-5-5-5-|--------------------------|


|--------------17--------|----------------15----13--|-12b13r(12)-10-----------|
|-/15-15-13-15----13-15--|-13h15-15-13-15----15-----|----------------13--10---|
|------------------------|--------------------------|-------------------------|
|------------------------|--------------------------|-------------------------|
|------------------------|--------------------------|-------------------------|
|------------------------|--------------------------|-------------------------|


This is the backing guitar for the solo and other parts
|------------------|----------------|------------|--------------|
|------------------|----------------|------------|--------------|
|------------------|----------------|------------|--------------|
|------------------|----------------|--------7-8-|--------10-12-|
|-----8-----8------|---8-----8-12---|-----10-----|-----12-------|
|-0-0---0-0---0-3--|-0---0-0--------|-0-0--------|-0-0----------|

this is played at 2:53
|----------------------------------|
|-10-10----------------10-10-------|
|-------12-12-10-10----------12-10-|
|-------------------12-------------|
|----------------------------------|
|----------------------------------|


|----------------------------------------8-10-|
|-10-10----------------8-10-8----8-10-11------|
|-------12-12-10-10-----------10--------------|
|-------------------12------------------------|
|---------------------------------------------|
|---------------------------------------------|

3:02
||------------------|---------------|----------------|--------------------||
||o-----------------|---------------|----------------|-------------------o||
||--------9---10----|---------------|----------------|----------7---------||
||------0---0----0--|-----3-5---7---|-----5-7---8----|-----8-10---10-8-7--||
||o---0-------------|---3-----3---3-|---5-----5---5--|-------------------o||
||--0---------------|-3-------------|-5--------------|-8-8----------------||

Play the chorus again.


(3:53)
    PM|       PM|
|---------|---------|---------|-----------|
|---------|---------|---------|-----------|
|-------7-|-------5-|-------7-|-----------|
|-0-----7-|-3-----3-|-5-----5-|-8-8-10-10-|
|-0-0-0-5-|-3-3-3-3-|-5-5-5-5-|-8-8-10-10-|
|-0-0-0---|-3-3-3-3-|-5-5-5-5-|-8-8-10-10-|

(4:02)
|----------|----------|----------|----------------------|
|----------|----------|----------|----------------------|
|-------5--|--------5-|--------7-|-------7-10-9-7-------|
|-0-----5--|-3------3-|-5------5-|-8-7-8----------10-7--|
|-0-0-0-7--|-3--3-3-3-|-5--5-5-5-|----------------------|
|-0-0-0-0--|-3--3-3-3-|-5--5-5-5-|----------------------|

(4:11)
|-----------|-----------|-----------|------------|
|-----------|-----------|-----------|------------|
|--------9--|--------9--|--------9--|--------9---|
|-0------7--|-8------8--|-0------7--|-8------8---|
|-0--0-0-5--|-8--8-8-8--|-0--0-0-5--|-8--8-8-8---|
|-0--0-0-0--|-8--8-8-8--|-0--0-0-0--|-8--8-8-8---|


|-------------|-------------|
|-------------|-------------|
|----------9--|----------9--|
|----------7--|-8--8--8--8--|
|-0--0--0--5--|-8--8--8--8--|
|-0--0--0--0--|-8--8--8--8--|

Tablature Legend
----------------
 h   - hammer-on
 p   - pull-off
 b   - bend
 pb  - pre-bend
 r   - bend release (if no number after the r, then release immediately)
 /\  - slide into or out of (from/to "nowhere")
 s   - legato slide
 S   - shift slide
 - natural harmonic
[n]  - artificial harmonic
n(n) - tapped harmonic
 ~   - vibrato
 tr  - trill
 T   - tap
 TP  - trem. picking
 PM  - palm muting
\n/  - tremolo bar dip; n = amount to dip
 \n  - tremolo bar down
 n/  - tremolo bar up
/n\  - tremolo bar inverted dip
 =   - hold bend; also acts as connecting device for hammers/pulls
 <> - volume swell (louder/softer)
 x   - on rhythm slash represents muted slash
 o   - on rhythm slash represents single note slash
Tap to rate this tab
# A B C D E F G H I J K L M N O P Q R S T U V W X Y Z