Song name
# A B C D E F G H I J K L M N O P Q R S T U V W X Y Z

Pillar - I Fade Away tab

I FADE AWAY
As recorded by Pillar
(From the 2008 Album FOR THE LOVE OF THE GAME)
	Words by Pillar Music by Pillar

Gtr I (C G C F A D) - 'Clean'
Gtr II (C G C F A D) - 'Distortion'
SO I love this song, its the best on the album by far
So I thought Id tab it for you
tuning : drop C or dropped d a full step down

  Gtr I
  PM-------------------------------------------------------------------|
|---------------------------------|------------------------------------|
|---------------------------------|------------------------------------|
|-9-9-------------7-7-------------|-9-9-------------7-7-----7-7--------|
|-----9-9-7-7-9-9-----9-9-7-7-9-9-|-----9-9-7-7-9-9-----9-9-----9-9----|
|---------------------------------|------------------------------------|
|---------------------------------|------------------------------------|

This is played by another clean guitar somewhere
|-7----10-7-|
|---10------|
|-----------|
|-----------|
|-----------|
|-----------|

Play along with the first little riff at the top, just listen to the song.
|----------|----------|------------|-------|
|-8--------|----------|------------|-------|
|----------|-9--------|-(9)--------|-------|
|----------|----------|------------|-10----|
|----------|----------|------------|-------|
|----------|----------|------------|-------|


|----------|----------|--------7--|------|
|-8--------|----------|-8---------|------|
|----------|-9--------|-----------|-9----|
|----------|----------|-----------|------|
|----------|----------|-----------|------|
|----------|----------|-----------|------|


  Gtr II
Most EPIC pre-chorus ever!
|---------------------------------|----------------------------------|
|---------------------------------|----------------------------------|
|---------------------------------|----------------------------------|
|-7s9-9-9-9-9-9s12-12-12-12-12-12-|-12-12-12-12-12-10-10-10-10-10-10-|
|-5s7-7-7-7-7-7s10-10-10-10-10-10-|-10-10-10-10-10--7--7--7--7--7--7-|
|---------------------------------|-10-10-10-10-10--7--7--7--7--7--7-|


CHORUS                                                    4x
||-------------------------|------------------------------||
||o------------------------|-----------------------------o||
||--9--9-9-9-9-12-12-12-12-|------------------------------||
||--9--9-9-9-9-12-12-12-12-|-12--12-12-12-10-10-10-10-10--||
||o-7--7-7-7-7-10-10-10-10-|-10--10-10-10--7--7--7--7--7-o||
||-------------------------|-10--10-10-10--7--7--7--7--7--||


||--------------------------|----------------------------|
||o-------------------------|----------------------------|
||--------------------------|----------------------------|
||---0-2-0-2--0-2-0-2--5--5-|-(5)-0-2-0-2--0-2-0-2--0--0-|
||o--0-2-0-2--0-2-0-2--5--5-|-(5)-0-2-0-2--0-2-0-2--0--0-|
||---0-2-0-2--0-2-0-2--5--5-|-(5)-0-2-0-2--0-2-0-2--0--0-|

K so play the verse with the other clean guitar, and then the pre-chorus and then the 
another 4 times, before proceeding to this part.

BRIDGE
|----------------------------|-------------------------------||
|----------------------------|------------------------------o||
|----------------------------|-------------------------------||
|-(0)-0-2-0-2--0-2-0-2--5--5-|-(5)-0-2-0-2-------------------||
|-(0)-0-2-0-2--0-2-0-2--5--5-|-(5)-0-2-0-2------------------o||
|-(0)-0-2-0-2--0-2-0-2--5--5-|-(5)-0-2-0-2--0-2-0-5-7b8r5-2--||

and then play the chorus a bunch of times.
Tap to rate this tab
# A B C D E F G H I J K L M N O P Q R S T U V W X Y Z