Song name
# A B C D E F G H I J K L M N O P Q R S T U V W X Y Z

Pillar - Simply tab

SIMPLY 
As recorded by Pillar
(From the 2004 Album WHERE DO WE GO FROM HERE)
	Words and Music by Pillar

Gtr I (C G C F A D) - 'clean'
Gtr II (C G C F A D) - 'distortion'
Best song on the album :)
 Intro
  Gtr I
So this IS bass, I just transcribed it for guitar, its the right notes just an octave Up.
|-----------------|-----------------|-----------------|-----------------|
|-----------------|-----------------|-----------------|-----------------|
|-----3---5-----2-|-----7---3---5-5-|-----3---5-----2-|-----7---3---5---|
|-0-0---0---0-0---|-0-0---0---0-----|-0-0---0---0-0---|-0-0---0---0-----|
|-----------------|-----------------|-----------------|-----------------|
|-----------------|-----------------|-----------------|-----------------|


|-----------------|-----------------|-----------------|----------------|
|-----------------|-----------------|-----------------|----------------|
|-----3---5-----2-|-----7---3---5-5-|-----3---5-----2-|---0------------|
|-0-0---0---0-0---|-0-0---0---0-----|-0-0---0---0-0---|-0---0-0-3-0-2--|
|-----------------|-----------------|-----------------|----------------|
|-----------------|-----------------|-----------------|----------------|

This is played by the bass during the verse.
|-----------------|-----------------|--------------------|
|-----------------|-----------------|--------------------|
|-----------------|-----------------|--------------------|
|-0-0-3-0-2-3-0-0-|-5-0-7-8-0-0-3-0-|-2-3-0-0-5-0-2-3----|
|-----------------|-----------------|--------------------|
|-----------------|-----------------|--------------------|


 Verse
The notes on the B string are very quiet.
      PM    PM    PM    PM      PM    PM    PM    PM
|-10----10----10----12----|-12----12----13----13----|
|----10----10----10----10-|----10----10----10----10-|
|-------------------------|-------------------------|
|-------------------------|-------------------------|
|-------------------------|-------------------------|
|-------------------------|-------------------------|


      PM    PM    PM    PM  Pre-chorus
|-13----12----12----12----||---------------|---------------|
|----10----10----10----10-||---------------|---------------|
|-------------------------||-----11--------|-----11--------|
|-------------------------||-14------12----|-14------12----|
|-------------------------||---------------|---------------|
|-------------------------||---------------|---------------|


 Chorus
  Gtr II
There is a weird chord in the second mesure
Its a C with an Ab bass.  I think its correct but im not 100% sure
|-----------------------|-----------------------|
|-----------------------|-----------------------|
|---------5-------------|--------------7-7------|
|--------------------7--|-8---8--x-x-8-7-7--3-5-|
|-0-0-3-5----0-0-3-5----|-8---8--x-x-8-8-8--3-5-|
|-0-0--------0-0--------|-8---8--x-x-8-8-8--3-5-|


|----------------------|------------------------|
|----------------------|------------------------|
|----------------------|------------------------|
|--5---3-5-------------|-0--0--0--10--10--10----|
|--5---3-5--5b6r(5)--5-|-0--0--0--10--10--10----|
|--5---3-5--5b6r(5)--5-|-0--0--0--10--10--10----|


|-----------------------|-----------------------|
|-----------------------|-----------------------|
|---------5-------------|--------------7-7------|
|--------------------7--|-8---8--x-x-8-7-7--3-5-|
|-0-0-3-5----0-0-3-5----|-8---8--x-x-8-8-8--3-5-|
|-0-0--------0-0--------|-8---8--x-x-8-8-8--3-5-|


|-----------------------|----------------------|
|-----------------------|----------------------|
|-----------------------|----------------------|
|--5---3-5--------------|-3--3--x-x-5--5--5----|
|--5---3-5--5b6r(5)--5--|-3--3--x-x-3--3--3----|
|--5---3-5--5b6r(5)--5--|-3--3--x-x-2--2--2----|

Go back and play the verse and chorus

BRIDGE
  PM|                 PM|                   PM|
|-----------------------------------------|------------------------------|
|-----------------------------------------|------------------------------|
|-----------------------------------------|---------------------7--7--7--|
|-----------------------------------------|---------------------6--6--6--|
|-0-0-5b6r(5)-5b6r(5)-0-0-5b6r(5)-5b6r(5)-|-0-0-5b6r(5)-5b6r(5)-5--5--5--|
|-0-0-----------------0-0-----------------|-0-0--------------------------|


  PM|                 PM|                   PM|
|-----------------------------------------|------------------------------------|
|-----------------------------------------|------------------------------------|
|-----------------------------------------|---------------------/11--11--11----|
|-----------------------------------------|-----------------------x---x---x----|
|-0-0-5b6r(5)-5b6r(5)-0-0-5b6r(5)-5b6r(5)-|-0-0-5b6r(5)-5b6r(5)--/9---9---9----|
|-0-0-----------------0-0-----------------|-0-0--------------------------------|


   
||--------------------|-------------------|
||o-------------------|-------------------|
||--------------------|-------------------|
||-----0--------2-----|----3-----5--5--5--|
||o-------0--------3--|-------3--5--5--5--|
||--0--------2--------|-3--------5--5--5--|


  PM|                 PM|                   PM|
|-----------------------------------------|-------------------------------------||
|-----------------------------------------|------------------------------------o||
|-----------------------------------------|---------------------/11--11--11-----||
|-----------------------------------------|-----------------------x---x---x-----||
|-0-0-5b6r(5)-5b6r(5)-0-0-5b6r(5)-5b6r(5)-|-0-0-5b6r(5)-5b6r(5)--/9---9---9----o||
|-0-0-----------------0-0-----------------|-0-0---------------------------------||


|-------------------|-------------------|--------------------|
|-------------------|-------------------|--------------------|
|-------------------|-------------------|-----------9--------|
|----0--------2-----|----3--------5-----|-------10-------10--|
|-------0--------3--|-------3--------5--|----8---------------|
|-0--------2--------|-3--------5--------|-8------------------|


|--------------------|---------------------|-------|
|--------------------|---------------------|-------|
|-----------10----9--|-----------9---------|--9----|
|-------10-----------|-------10-----10-----|-10----|
|----8---------------|----8-------------8--|--8----|
|-8------------------|-8-------------------|--8----|

back to the chorus


   Outro
    PM------------------|
||------------------|-------------------------||
||o-----------------|------------------------o||
||------------------|----------------10---9---||
||------------------|------------10--10--10---||
||o-0-0-----0-0-----|-0-0----x-x--8---8---8--o||
||--0-0-----0-0-----|-0-0----x-x--8---8---8---||


    PM|             PM|               PM|
||----------------------------------|-----------------------------||
||o---------------------------------|----------------------------o||
||------10--9-10--9-----10--9-10--9-|-----10--9-10--9-----10---9--||
||------10-10-10-10-----10-10-10-10-|-----10-10-10-10-10--10--10--||
||o-0-0-------------0-0-------------|-0-0--------------8---8---8-o||
||--0-0-------------0-0-------------|-0-0--------------8---8---8--||

YOU SIMPLY LOVE!!!


Tap to rate this tab
# A B C D E F G H I J K L M N O P Q R S T U V W X Y Z