Song name
# A B C D E F G H I J K L M N O P Q R S T U V W X Y Z

Pillar - The Runaway tab

THE RUNAWAY
As recorded by Pillar
(From the 2008 Album FOR THE LOVE OF THE GAME)
Tuning is drop C or dropped D a full step down
Gtr I (C G C F A D) - 'Noah Rythm'
Gtr II (C G C F A D) - 'Noah Lead'
Gtr III (C G C F A D) - 'Harmony'
INTRO/Verse
    Gtr I
||----------------------------|---------------------------|
||o---------------------------|---------------------------|
||----------------------------|---------------------------|
||------2-----2-----2------2--|-----5-----5-----5------5--|
||o-0-0----0-----0------------|---------------------------|
||---------------------5-5----|-3-3----3-----3-----0-0----|


|---------------------------|------------------------------||
|---------------------------|-----------------------------o||
|---------------------------|------------------------------||
|-----2-----2-----2------2--|-----5-----5-------5--5-3-----||
|-0-0----0-----0------------|-----------------------------o||
|--------------------5-5----|-3-3----3-----3--0------------||

This is played somewhere with guitar 2
The [10] is a pinch harmonic
|----------------------|----|
|-[10]-8-----------8---|----|
|--------9-9---------9-|----|
|------------10-10-----|----|
|----------------------|----|
|----------------------|----|

Pre-Chorus
|-------------------------------------------------|
|-------------------------------------------------|
|-------------------------------------------------|
|-------------------------------------------------|
|--7--7--7-10-10-10-10-10-10-12-12-12-12-12-12-12-|
|--7--7--7--9--9--9-10-10-10-12-12-12-12-12-12-12-|
|
| Gtr II
|-------------------------------------------------|
|-10-10-10-12-12-12-13-13-13-15-15-15-15-15-15-15-|
|--x--x--x--x--x--x--x--x--x--x--x--x--x--x--x--x-|
|--7--7--7--9--9--9-10-10-10-12-12-12-12-12-12-12-|
|-------------------------------------------------|
|-------------------------------------------------|


|------------------------------------------|
|------------------------------------------|
|------------------------------------------|
|------------------------------------------|
|--7--7--7-10-10-10-10-10-10-6-6-6-6-6-6-6-|
|--7--7--7--9--9--9-10-10-10-6-6-6-6-6-6-6-|
|
|------------------------------------------|
|-10-10-10-12-12-12-13-13-13-9-9-9-9-9-9-9-|
|--x--x--x--x--x--x--x--x--x-x-x-x-x-x-x-x-|
|--7--7--7--9--9--9-10-10-10-6-6-6-6-6-6-6-|
|------------------------------------------|
|------------------------------------------|


|-------------------------------------------------|-------------------------|
|-------------------------------------------------|-------------------------|
|-------------------------------------------------|-------------------------|
|-------------------------------------------------|-2---5---5---------------|
|--7--7--7-10-10-10-10-10-10-12-12-12-12-12-12-12-|-0-0---0-----------------|
|--7--7--7--9--9--9-10-10-10-12-12-12-12-12-12-12-|-----------0-0-0-0-2-2-2-|
|
|-------------------------------------------------|-------------------------|
|-10-10-10-12-12-12-13-13-13-15-15-15-15-15-15-15-|-------------------------|
|--x--x--x--x--x--x--x--x--x--x--x--x--x--x--x--x-|-------------------------|
|--7--7--7--9--9--9-10-10-10-12-12-12-12-12-12-12-|-2---5---5---------------|
|-------------------------------------------------|-0-0---0---5-5-5-5-7-7-7-|
|-------------------------------------------------|-------------------------|

CHORUS
|-------------------------------------------------|
|-------------------------------------------------|
|--------------------------5--5--5--5--5--5--5--5-|
|--7--7--7--7--7--7--7--7--5--5--5--5--5--5--5--5-|
|--7--7--7--7--7--7--7--7--3--3--3--3--3--3--3--3-|
|--7--7--7--7--7--7--7--7-------------------------|
|
|-------------------------------------------------|
|-10-10-10-10-10-10-10-10-13-13-13-13-13-13-13-13-|
|--x--x--x--x--x--x--x--x--x--x--x--x--x--x--x--x-|
|--7--7--7--7--7--7--7--7-10-10-10-10-10-10-10-10-|
|-------------------------------------------------|
|-------------------------------------------------|


|---------------------------------|
|---------------------------------|
|---------------------------------|
|-5-5-5-5-5-5-5-5-5-5-5-5-5-5-5-5-|
|-5-5-5-5-5-5-5-5-5-5-5-5-5-5-5-5-|
|-5-5-5-5-5-5-5-5-5-5-5-5-5-5-5-5-|
|
|---------------------------------|
|-8-8-8-8-8-8-8-8-8-8-8-8-8-8-8-8-|
|-x-x-x-x-x-x-x-x-x-x-x-x-x-x-x-x-|
|-5-5-5-5-5-5-5-5-5-5-5-5-5-5-5-5-|
|---------------------------------|
|---------------------------------|


|-------------------------------------------------|
|-------------------------------------------------|
|--------------------------5--5--5--5--5--5--5--5-|
|--7--7--7--7--7--7--7--7--5--5--5--5--5--5--5--5-|
|--7--7--7--7--7--7--7--7--3--3--3--3--3--3--3--3-|
|--7--7--7--7--7--7--7--7-------------------------|
|
|-------------------------------------------------|
|-10-10-10-10-10-10-10-10-13-13-13-13-13-13-13-13-|
|--x--x--x--x--x--x--x--x--x--x--x--x--x--x--x--x-|
|--7--7--7--7--7--7--7--7-10-10-10-10-10-10-10-10-|
|-------------------------------------------------|
|-------------------------------------------------|


|-----------------------------------------|
|-----------------------------------------|
|-----------------------------------------|
|--7--7--7--7--7--7--7--7-7-7-7-7-7-7-7-7-|
|--5--5--5--5--5--5--5--5-5-5-5-5-5-5-5-5-|
|--4--4--4--4--4--4--4--4-4-4-4-4-4-4-4-4-|
|
|-----------------------------------------|
|-10-10-10-10-10-10-10-10-8-8-8-8-8-8-8-8-|
|--x--x--x--x--x--x--x--x-x-x-x-x-x-x-x-x-|
|--7--7--7--7--7--7--7--7-5-5-5-5-5-5-5-5-|
|-----------------------------------------|
|-----------------------------------------|


|-------------------------------------------------|
|-------------------------------------------------|
|--------------------------5--5--5--5--5--5--5--5-|
|--7--7--7--7--7--7--7--7--5--5--5--5--5--5--5--5-|
|--7--7--7--7--7--7--7--7--3--3--3--3--3--3--3--3-|
|--7--7--7--7--7--7--7--7-------------------------|
|
|-------------------------------------------------|
|-10-10-10-10-10-10-10-10-13-13-13-13-13-13-13-13-|
|--x--x--x--x--x--x--x--x--x--x--x--x--x--x--x--x-|
|--7--7--7--7--7--7--7--7-10-10-10-10-10-10-10-10-|
|-------------------------------------------------|
|-------------------------------------------------|


|-----------------------------------|
|-----------------------------------|
|-----------------------------------|
|-5-5-5-5-5-5-5-5-5-5-5-5-5-5-5-5---|
|-5-5-5-5-5-5-5-5-5-5-5-5-5-5-5-5---|
|-5-5-5-5-5-5-5-5-5-5-5-5-5-5-5-5---|
|
|-----------------------------------|
|-8-8-8-8-8-8-8-8-8-8-8-8-8-8-8-8---|
|-x-x-x-x-x-x-x-x-x-x-x-x-x-x-x-x---|
|-5-5-5-5-5-5-5-5-5-5-5-5-5-5-5-5---|
|-----------------------------------|
|-----------------------------------|


|---------------------|---------------------|
|---------------------|---------------------|
|---------------------|---------------------|
|-5--5-5--5-5--5-5--5-|-0--0-0--0-0--0-0--0-|
|-3--3-3--3-3--3-3--3-|-0--0-0--0-0--0-0--0-|
|-3--3-3--3-3--3-3--3-|-0--0-0--0-0--0-0--0-|
|
|---------------------|---------------------|
|-5--5-5--5-5--5-5--5-|---------------------|
|-x--x-x--x-x--x-x--x-|-5--5-5--5-5--5-5--5-|
|-2--2-2--2-2--2-2--2-|-x--x-x--x-x--x-x--x-|
|---------------------|-3--3-3--3-3--3-3--3-|
|---------------------|---------------------|

This is played somewhere in the next verse
|-12-12-12------10--------|----|
|----------10-8----10-8-5-|----|
|-------------------------|----|
|-------------------------|----|
|-------------------------|----|
|-------------------------|----|

Solo/Bridge
|------------------|---------------------------|
|------------------|---------------------------|
|------------------|---------------------------|
|------------------|---------------------------|
|------------------|-------5------------3------|
|-7-7-7-5-7-7------|-3-3-3---3-3--2-2-2---2-2--|


|------------------|------------------------------------|
|------------------|------------------------------------|
|------------------|------------------------------------|
|------------------|------------------------------------|
|------------------|-------5---------------3------------|
|-7-7-7-5-7-7------|-3-3-3---3-3-3-3-2-2-2---2-2-2-2----|


                                               ~~~~
|----------------|-------------|-----------|---------|
|----------------|-------------|-----------|---------|
|----/14----(14)-|-------12----|-----------|---------|
|----------------|-14----------|-14--------|-(14)----|
|----------------|-------------|-----------|---------|
|----------------|-------------|-----------|---------|

The harmony guitar comes in here, I dont bother with the third guitar when I play. I 
play guitar 2
|---------------------------------------|
|---------------------------------------|
|---------------------------------------|
|---------------------------------------|
|---------------------------------------|
|--7-7-7-5--7-7--7-5-7-7-7-5-7-7---7--5-|
|
|-12-------15---------------------------|
|---------------15---------------(15)---|
|---------------------------------------|
|---------------------------------------|
|---------------------------------------|
|---------------------------------------|
|
| Gtr III
|----------12---------------------------|
|-13------------12---------------(12)---|
|---------------------------------------|
|---------------------------------------|
|---------------------------------------|
|---------------------------------------|


|---------------------------------------|
|---------------------------------------|
|---------------------------------------|
|---------------------------------------|
|--------5---------5-------3----------3-|
|--3-3-3----3-3--3---2-2-2---2-2---2----|
|
|----------15---------------------------|
|-13------------12---------------(12)---|
|---------------------------------------|
|---------------------------------------|
|---------------------------------------|
|---------------------------------------|
|
|----------12---------------------------|
|---------------------------------------|
|-14------------12---------------(12)---|
|---------------------------------------|
|---------------------------------------|
|---------------------------------------|


|--------------------------------------------------|
|--------------------------------------------------|
|--------------------------------------------------|
|--------------------------------------------------|
|--------------------------------------------------|
|--7-7-7--5----7-----7----7------5-7-7-7-5-7-7-7-5-|
|
|-----------12-------------------------------------|
|-13-----13------13-12-----------------------------|
|----------------------14---(14)-------------------|
|--------------------------------------------------|
|--------------------------------------------------|
|--------------------------------------------------|
|
|--------------------------------------------------|
|-----------13-------------------------------------|
|-14-----14------14-12-----------------------------|
|----------------------14---(14)-------------------|
|--------------------------------------------------|
|--------------------------------------------------|


|-------------------------------------|
|-------------------------------------|
|-------------------------------------|
|-------------------------------------|
|---------5--------5--------3-------3-|
|---3-3-3----3-3-3----2-2-2---2-2-2---|
|
|-------------------------------------|
|-------------------------------------|
|-/14-------12------------------------|
|--------------------12---------------|
|-------------------------------------|
|-------------------------------------|
|
|-------------------------------------|
|-------------------------------------|
|-------------------------------------|
|-/15-------14------------------------|
|--------------------14---------------|
|-------------------------------------|


|------------------------|---------------------|
|------------------------|---------------------|
|------------------------|---------------------|
|---7---9--9--10--12-12--|---7---9--9--10--6-6-|
|---7--10-10--10--12-12--|---7--10-10--10--6-6-|
|---7---9--9--10--12-12--|---7---9--9--10--6-6-|
|
|------------------------|---------------------|
|-/10--------------------|-/13-----------------|
|------------------------|---------------------|
|------------------------|---------------------|
|------------------------|---------------------|
|------------------------|---------------------|
|
|------------------------|---------------------|
|------------------------|---------------------|
|--/9--------------------|-/14-----------------|
|------------------------|---------------------|
|------------------------|---------------------|
|------------------------|---------------------|


|-----------------------|-------------------------------|
|-----------------------|-------------------------------|
|-----------------------|--10-10-10-10------------------|
|---7---9--9--10--12-12-|--10-10-10-10------------------|
|---7--10-10--10--12-12-|---8--8--8--8------------------|
|---7---9--9--10--12-12-|--------------5-5-5-7-7-7-7-7--|
|
|-/12-------------------|-/17---------------------------|
|-----------------------|-------------------------------|
|-----------------------|-------------------------------|
|-----------------------|-------------------------------|
|-----------------------|-------------------------------|
|-----------------------|-------------------------------|
|
|-----------------------|-------------------------------|
|-/13-------------------|-/18---------------------------|
|-----------------------|-------------------------------|
|-----------------------|-------------------------------|
|-----------------------|-------------------------------|
|-----------------------|-------------------------------|

After this play the pre-chorus and then the chorus a bunch of times, listen to the song 
find out when to play what.
Tap to rate this tab
 
# A B C D E F G H I J K L M N O P Q R S T U V W X Y Z