Pillar - Whatever It Takes tab

http://www.youtube.com/watch?v=5i8lPcXcPm8
That is the youtube video, it is not of me, but these tabs are the same! I'm not sure if 
all right... but they sound fine in the video, which is why I'm putting the tabs up :)
Just to clarify: the VIDEO IS NOT MINE, the tab, is. The guy on the video figured out 
tab, and based on his tuning I did too. In any case, to the tab!


WHATEVER IT TAKES (Drop Bb)
INTRO

|-------------------------------------|
|-------------------------------------|
|-------------------------------------|
|-77777777-77777779-66666666-99999999-|
|-44444444-00000000-22222222-99999999-| x2
|-44444444-00000000-22222222-99999999-|

VERSE
|-----------------------------------------|
|-----------------------------------------|
|-----------------------------------------|
|-22-2-0-2-5-----4h6~----7h9~----2~---2~--|
|-22-2-0-2-5---4~------7~------2~---2~-2~-|
|-22-2-0-2-5-4~------7~------2~---2~------| rpt plucking x2

|------------------------------------|
|------------------------------------|
|------------------------------------|
|-44444444-77777777-2222222222222222-|
|-44444444-77777777-2222222222222222-|rpt x2
|-44444444-77777777-2222222222222222-|
    xxxxxxxx    xxxxxxxx   xxxxxxxxxxxxxxxx

|--------------------------------------------------------------------|
|--------------------------------------------------------------------|
|---14-13---13-14-14-13---13-14-14-13-14-13-14-13---13-14-14-13v-----|
|---xx-xx---xx-xx-xx-xx---xx-xx-xx-xx-xx-xx-xx-xx---xx-xx-xx-xx------|
|---12-11---11\12-12-11---11\12-12\11\12\11\12\11---11\12-12-11v-----|
|-0-------0-------------0-------------------------0------------------| harmonic ??

CHORUS

|---------------------------------------------------------------------------|
|---------------------------------------------------------------------------|
|---------------------------------------------------------------------------|
|-77777777-77777779-66666666-99999999-77777777-77777779-66666666-22-2-0-2-5-|
|-44444444-00000000-22222222-99999999-44444444-00000000-22222222-22-2-0-2-5-|
|-44444444-00000000-22222222-99999999-44444444-00000000-22222222-22-2-0-2-5-|
repeat above twice then:

VERSE
|------------------------------|
|------------------------------|
|------------------------------|
|-----4h6~----7h9~----2~---2~--|
|---4~------7~------2~---2~-2~-|
|-4~------7~------2~---2~------| x2

|------------------------------------|
|------------------------------------|
|------------------------------------|
|-44444444-77777777-2222222222222222-|
|-44444444-77777777-2222222222222222-|rpt x2
|-44444444-77777777-2222222222222222-|
 _xxxxxxxx xxxxxxxx xxxxxxxxxxxxxxxx

|-------------------------------------------------------------------|
|-------------------------------------------------------------------|
|---14-13---13-14-14-13---13-14-14-13-14-13-14-13---13-14-14-13v----|
|---xx-xx---xx-xx-xx-xx---xx-xx-xx-xx-xx-xx-xx-xx---xx-xx-xx-xx-----|
|---12-11---11\12-12-11---11\12-12\11\12\11\12\11---11\12-12-11v----|
|-0-------0-------------0-------------------------0-----------------|


CHORUS

|---------------------------------------------------------------------------|
|---------------------------------------------------------------------------|
|---------------------------------------------------------------------------|
|-77777777-77777779-66666666-99999999-77777777-77777779-66666666-22-2-0-2-5-|
|-44444444-00000000-22222222-99999999-44444444-00000000-22222222-22-2-0-2-5-|
|-44444444-00000000-22222222-99999999-44444444-00000000-22222222-22-2-0-2-5-|

|----------------------------------------------------------------------------|
|----------------------------------------------------------------------------|
|----------------------------------------------------------------------------|
|-77777777-77777779-66666666-99999999-77777777-77777779-66666666-22-2-0-2-5-4|
|-44444444-00000000-22222222-99999999-44444444-00000000-22222222-22-2-0-2-5-4|
|-44444444-00000000-22222222-99999999-44444444-00000000-22222222-22-2-0-2-5-4|

BRIDGE

|--------------------------------------------------------|
|--------------------------------------------------------|
|--------------------------------------------------------|
|-4/12\11-4-7-6-4/12\11-4-7-6-9-6-4/12\11-4-7-6-5555-----|
|-4/12\11-4-7-6-4/12\11-4-7-6-9-6-4/12\11-4-7-6-5555-----|
|-4/12\11-4-7-6-4/12\11-4-7-6-9-6-4/12\11-4-7-6-5555-----| x2

|-----------------------------------------------|
|-----------------------------------------------|
|-----------------------------------------------|
|-----4~-6~-4~----4~-6~-4~-----4~-6~-4~-----9~--|
|---4~----------0~-----------2~-----------9~----|
|-4~----------0~-----------2~-----------9~------|

CHORUS

|---------------------------------------------------------------------------|
|---------------------------------------------------------------------------|
|---------------------------------------------------------------------------|
|-77777777-77777779-66666666-99999999-77777777-77777779-66666666-22-2-0-2-5-|
|-44444444-00000000-22222222-99999999-44444444-00000000-22222222-22-2-0-2-5-|
|-44444444-00000000-22222222-99999999-44444444-00000000-22222222-22-2-0-2-5-|

|----------------------------------------------------------------------------|
|----------------------------------------------------------------------------|
|----------------------------------------------------------------------------|
|-77777777-77777779-66666666-99999999-77777777-77777779-66666666-22-2-0-2-5-4|
|-44444444-00000000-22222222-99999999-44444444-00000000-22222222-22-2-0-2-5-4|
|-44444444-00000000-22222222-99999999-44444444-00000000-22222222-22-2-0-2-5-4|

ENDING

|-------------------------------------------------------|
|-------------------------------------------------------|
|-------------------------------------------------------|
|-4/12\11-4-7-6-4/12\11-4-7-6-9-6-4/12\11-4-7-6-5555----|
|-4/12\11-4-7-6-4/12\11-4-7-6-9-6-4/12\11-4-7-6-5555----|
|-4/12\11-4-7-6-4/12\11-4-7-6-9-6-4/12\11-4-7-6-5555----|

To be quite honest, I'm not really sure about all this. You tell me. That sound good?
Tap to rate this tab
 
# A B C D E F G H I J K L M N O P Q R S T U V W X Y Z