Song name
# A B C D E F G H I J K L M N O P Q R S T U V W X Y Z

Pillar - Echelon tab

Help us improve GuitareTab! Take a short survey!
Pillar-Fireproof Echelon Dropped D tuning Intro/Verse/Outro
----------------------------------------------------------------------------------|
----------------------------------------------------------------------------------|
----------------------------------------------------------------------------------|
9-9-----9-9----9-9-----9-9-----12-12-----12-12-----12-12-----12-12----------------|
----9-9----9-9-----9-9-----9-9-------9-9-------9-9-------9-9-------9-9------------|
----------------------------------------------------------------------------------|

----------------------------------------------------------------------------------|
----------------------------------------------------------------------------------|
----------------------------------------------------------------------------------|
5-5-----5-5-----5-5-----5-5-------9-9-------9-9-------9-9-------9-9---------------|
----7--7----7-7-----7-7-----7-7------12-12------12-12-----12-12-----12-12---------|
----------------------------------------------------------------------------------|
Chorus
----------------------------------------------------------------------------------|
----------------------------------------------------------------------------------|
----------------------------------------------------------------------------------|
11--11--11--11-11-----7----7--7---7------2--2---4--4------------------------------|
-9---9---9---9---9-----7----5---5---5-----0--0---2--2-----------------------------|
-9---9---9---9---9-----7----5---5---5-----0--0---2--2-----------------------------|
Related for Echelon tab