Song name
# A B C D E F G H I J K L M N O P Q R S T U V W X Y Z

Pillar - Whatever It Takes tab

Whatever it takes, Drop C
Play this riff twice, second time don't play the seven bar chord
end on the 4
           0
           0
D|------------------------------------------  ---------------------|
A|------------------------------------------  ---------------------|
F|------------------------------------------  ---------------------|
C|-5555555555555555777777774444444477777777-  --0-0-0-0--2-4-1-3-2-|
G|-2222222200000000000000000000000077777777-  --0-0-0-0--2-4-1-3-2-|
C|-2222222200000000000000000000000077777777-x2--0-0-0-0--2-4-1-3-2-|

Verse
D|---------------------------------------------------|
A|---------------------------------------------------|
F|-this twice----------------------------------------|
C|---2-4--5-7--0--0----------------------------------|
G|--2----5----0--0-0-2222222255555555000000000000000-|
C|-2----5----0--0----2222222255555555000000000000000-|
                     *******************************
Pre-Chorus
D|----------------------------------------------------------------|
A|----------------------------------------------------------------|
F|--12-11--11-12-12-11-11-12-12-11-12-11-12-11-11-12-12-11v-------|
C|--xx-xx--xx-xx-xx-xx-xx-xx-xx-xx-xx-xx-xx-xx-xx-xx-xx-xx--------|
G|--10-9---9\-10-10-9--9\-10-10\9\-10\9\-10\9--9\-10-10--9v-------|
C|-0------0-----------0-----------------------0-------------------|

Chorus
Verse
Pre-Chorus

Still figuring out the bridge.
This is perfect, no mistakes
Tap to rate this tab
 
# A B C D E F G H I J K L M N O P Q R S T U V W X Y Z