Song name
# A B C D E F G H I J K L M N O P Q R S T U V W X Y Z

Pillar - Shine tab

Intro Guitar one
D|----------------------------------------------------|
A|----------------------------------------------------|
F|----9h11---------11-----9-------7--h7---------------|
C|----0-------0--0-------0--0---0--0-----0------------|
G|----0-----------------------------------------------|
C|----------------------------------------------------|
              *  *       *  *   *  *     *
D|-----------------------------------------------------------|
A|-----------------------------------------------------------|
F|----9h11----------11-----14\----7---9----------------------|
C|----0--------0--0-------0---0--------0----0----0-----------|
G|----0------------------------------------------------------|
C|-----------------------------------------------------------|
               *  *       *   *        *    *    *
D|-----------------------------------------------------------|
A|-----------------------------------------------------------|
F|-----------------------------------------------------------|
C|------10---------10-------10---10------10-----10----------|
G|------10---------10-------10---10------10-----10-----------|
C|------10---0--0--10----0--10---10---0--10---0-10---0------|
             *  *        *            *     *    *
D|-----------------------------------------------------------|
A|-----------------------------------------------------------|
F|-----------------------------------------------------------|
C|----5------------5-------5---5-------5------5--------------|
G|----5------------5-------5---5-------5------5--------------|
C|----5---0--0-----5---0---5---5---0---5--0---5---0----------|
          *  *         *           *      *       *
Verse, guitar one and two
D|----------------------------------------------------|
A|----------------------------------------------------|
F|----9h11---------11-----9-------7--h7---------------|
C|----0-------0--0-------0--0---0--0-----0------------|
G|----0-----------------------------------------------|
C|----------------------------------------------------|
              *  *       *  *   *  *      *
D|-----------------------------------------------------------|
A|-----------------------------------------------------------|
F|----9h11----------11-----14\----7---9----------------------|
C|----0--------0--0-------0---0--------0----0----0-----------|
G|----0------------------------------------------------------|
C|-----------------------------------------------------------|
               *  *       *   *        *     *   *
D|----------------------------------------------------------|
A|----------------------------------------------------------|
F|----------------------------------------------------------|
C|-------10--------10-------10--10------10------10---------|
G|-------10--------10-------10--10------10------10----------|
C|-------10--0--0--10----0--10--10---0--10---0--10----0----|
             *  *      *             *       *      *
D|-----------------------------------------------------------|
A|-----------------------------------------------------------|
F|-----------------------------------------------------------|
C|----5------------5-------5---5-------5------5--------------|
G|----5------------5-------5---5-------5------5--------------|
C|----5---0--0-----5---0---5---5---0---5--0---5---0----------|
          *  *         *           *      *       *
Pre- Chorus 1. Guitar one
D|--------------------------------------------------------|
A|--------------------------------------------------------|
F|--------------------------------------------------------|
C|-----5-5--5-5--5-5--5-5--h3~~~--------------------------|
G|-----5-5--5-5--5-5--5-5--h3~~~--------------------------|
C|-----5-5--5-5--5-5--5-5--h3~~~--------------------------|
   Play this part twice
D|--------------------------------------------------------|
A|--------------------------------------------------------|
F|--------------------------------------------------------|
C|----0---0--0---3--0--0---3--0--0---3--0--5--------------|
G|----0---0--0---3--0--0---3--0--0---3--0--5--------------|
C|----0---0--0---3--0--0---3--0--0---3--0--5--------------|

D|------------------------------------------------------------|
A|------------------------------------------------------------|
F|------------------------------------------------------------|
C|----0---0--0---3--0--0---3--0--0---3--0--5---6--------------|
G|----0---0--0---3--0--0---3--0--0---3--0--5---6--------------|
C|----0---0--0---3--0--0---3--0--0---3--0--5---6--------------|
Chorus. Play four times
D|---------------------------------------------------|
A|---------------------------------------------------|
F|---------------------------------------------------|
C|-10---------10\5------0----------------------------|
G|-10---------10\5------0----------------------------|
C|-10---------10\5------0-----------------------------|
   Guitar 2 (FILL)
D|-----------------------------------------------------|
A|---------------------7/ 8  /7/10---------------------|
F|---------h11/12ph11--xxxxxxxxxxx---------------------|
C|---------------------xxxxxxxxxxx---------------------|
G|---------------------9/ 10 /9/12---------------------|
C|-----------------------------------------------------|
 Verse two

D|----------------------------------------------------|
A|----------------------------------------------------|
F|----9h11---------11-----9-------7--h7---------------|
C|----0-------0--0-------0--0---0--0-----0------------|
G|----0-----------------------------------------------|
C|----------------------------------------------------|
              *  *       *  *   *  *     *
D|-----------------------------------------------------------|
A|-----------------------------------------------------------|
F|----9h11----------11-----14\----7---9----------------------|
C|----0--------0--0-------0---0--------0----0----0-----------|
G|----0------------------------------------------------------|
C|-----------------------------------------------------------|
               *  *       *   *        *    *    *
D|-----------------------------------------------------------|
A|-----------------------------------------------------------|
F|-----------------------------------------------------------|
C|------10---------10-------10---10------10-----10----------|
G|------10---------10-------10---10------10-----10-----------|
C|------10---0--0--10----0--10---10---0--10---0-10---0------|
             *  *        *            *     *    *
D|-----------------------------------------------------------|
A|-----------------------------------------------------------|
F|-----------------------------------------------------------|
C|----5------------5-------5---5-------5------5--------------|
G|----5------------5-------5---5-------5------5--------------|
C|----5---0--0-----5---0---5---5---0---5--0---5---0----------|
          *  *         *           *      *       *
Then.. Guitar one plays same verse while guitar two plays this..

D|----------------------------------------------------|
A|----------------------------------------------------|
F|----13h15--------15-----13-------11--h11------------|
C|----0-------0--0-------0---0---0--0-----0-----------|
G|----0-----------------------------------------------|
C|----------------------------------------------------|
              *  *       *  *   *  *     *
D|-----------------------------------------------------------|
A|-----------------------------------------------------------|
F|----13h15--------15------17\---11---13--15-----------------|
C|----0--------0--0-------0---0--------0----0----0-----------|
G|----0------------------------------------------------------|
C|-----------------------------------------------------------|
               *  *       *   *        *    *    *
D|----------------------------------------------------------|
A|------13---------13-------13---13------13-----13----------|
F|------12---------12-------12---12------12-----12----------|
C|------10---------10-------10---10------10-----10---------|
G|------10---------10-------10---10------10-----10----------|
C|------10---0--0--10----0--10---10---0--10---0-10---0-----|
             *  *        *            *     *    *
D|-----------------------------------------------------------|
A|----8------------8-------8---8-------8------8--------------|
F|----7------------7-------7---7-------7------7--------------|
C|----5------------5-------5---5-------5------5--------------|
G|----5------------5-------5---5-------5------5--------------|
C|----5---0--0-----5---0---5---5---0---5--0---5---0----------|
          *  *         *           *      *       *


 Pre-Chorus 2. Play two times
( The 3 on the F string is a pinch harmonic )
D|-------------------------------------------------|
A|-------------------------------------------------|
F|-----------------------3-------------------------|
C|----5-5--5-5--5-5--5-5---------------------------|
G|----5-5--5-5--5-5--5-5---------------------------|
C|----5-5--5-5--5-5--5-5---------------------------|

D|-----------------------------------------------------|
A|-----------------------------------------------------|
F|-----------------------------------------------------|
C|----0---0--0---3--0--0---3--0--0---3---0--5----------|
G|----0---0--0---3--0--0---3--0--0---3---0--5----------|
C|----0---0--0---3--0--0---3--0--0---3---0--5----------|

D|----------------------------------------------------------|
A|----------------------------------------------------------|
F|----------------------------------------------------------|
C|----0---0--0---3--0--0---3--0--0---3---0--5---6-----------|
G|----0---0--0---3--0--0---3--0--0---3---0--5---6-----------|
C|----0---0--0---3--0--0---3--0--0---3---0--5---6-----------|

  Chorus 2. Same as Chorus one.Play four times
D|---------------------------------------------------|
A|---------------------------------------------------|
F|---------------------------------------------------|
C|-10---------10\5------0----------------------------|
G|-10---------10\5------0----------------------------|
C|-10---------10\5------0-----------------------------|
   Guitar 2 (FILL)
D|-----------------------------------------------------|
A|---------------------7/ 8  /7/10---------------------|
F|---------h11/12ph11--xxxxxxxxxxx---------------------|
C|---------------------xxxxxxxxxxx---------------------|
G|---------------------9/ 10 /9/12---------------------|
C|-----------------------------------------------------|
Verse once.. but end on..
D|---------------------------------------------|
A|---------------------------------------------|
F|--------------------------------------------|
C|----5------------5-------5-~----------------|
G|----5------------5-------5~-----------------|
C|----5---0--0-----5---0---5~-----------------|
          *  *         *
Solo
Guitar 1 (Play x2)
D|----------------|----------------|----------------|----------------|
A|----------------|----------------|----------------|----------------|
F|----------------|----------------|----------------|----------------|
C|-0--------------|-10-------------|-5--------------|-0--------------|
G|-0--------------|-10-------------|-5--------------|-0--------------|
C|-0--------------|-10-------------|-5--------------|-0--------------|

Guitar 3
D|-----------------------------------------------|
A|-----------------------------------------------|
F|-------10----10---------10----10---------10----|
C|-10-12----12------10-12----12------10-12----12-|
G|-----------------------------------------------|
C|-----------------------------------------------|

D|-------------------------------------------|
A|-------13------13------13------------------|
F|-/14------12------10--------------10-------|
C|--------------------------10--h12----12----|
G|-------------------------------------------|
C|-------------------------------------------|

D|---------------------------------------|
A|---------------------------------------|
F|---------------------------------------|
C|-12-10------10-------------------------|
G|---------12----10---8-12---8-----------|
C|----------------------------------12---|

D|-------------------------------------|
A|-13-12----12-----------13b(15)-------|
F|-------14---- (x6) ------------------|
C|-------------------------------------|
G|-------------------------------------|
C|-------------------------------------|
The "(x6)" means play the previous 4 notes for 6 consecutive times before moving on to
next notes

D|----12-13----15b(16)r15-13-------12-13----15b(16)r15-13----|
A|-15-------15---------------15-15-------15---------------15-|
F|-----------------------------------------------------------|
C|-----------------------------------------------------------|
G|-----------------------------------------------------------|
C|-----------------------------------------------------------|

D|----12-13----15b(16)r15-13----13-15-13-----------------|
A|-15-------15---------------15----------15-------(15)\--|
F|---------------------------------------- (hold 15 -----|
C|---------------------------------------- then slide ---|
G|------------------------------------------ down) ------|
C|-------------------------------------------------------|

D|------------------------------------------------------------------------|
A|-13-12----12-------13-15-13-12----12------------------------------------|
F|-------14---- (x3) ------------14----14-12-14-12----12------------------|
C|-------------------------------------------------15----15-12-15-12~~~---|
G|------------------------------------------------------------------------|
C|------------------------------------------------------------------------|

|-------------------------------------------------------------------------13|
|--------------------------------------------------------10h13-15-15-15-14--|
|----------------------------------10h12-12-12-12h14-14-14------------------|
|10h12-12-12-12p10-10-10-12h15-15-15----------------------------------------|
|---------------------------------------------------------------------------|
|---------------------------------------------------------------------------|
        PM..        ....        ....      ....        ....

Bridge
Guitar 1 & 2
D|------------|------------|------------|-------------------------|
A|------------|------------|------------|-------------------------|
F|------------|------------|------------|-------------------------|
C|-0----------|-(0)--------|-10---------|-5----------5------5-5---|
G|-0----------|-(0)--------|-10---------|-5----------5------5-5---|
C|-0----------|-(0)--------|-10---------|-5----------5------5-5---|

Guitar 3
D|----------------|----------------|----------------|----------------|
A|-15~~~~~~~~~~~~~|~(15)~~~~~~~~~~~|~(15)~~~~~~~~~~~|~(15)~~~~~~~~~~~|
F|----------------|- (hold note ---|- (continue ----|----------------|
C|----------------|- with vibrato -| holding vibrato|----------------|
G|----------------|- and fadeout) -| and fade-in) --|----------------|
C|----------------|----------------|----------------|----------------|

Verse 3
(Same as "Verse 1" except Guitar 1 & 2 plays this instead of the last measure of the
and the verse is only played x1, not x2)
C|-5-5---5-5---5-5---5-5-----------|
G|-5-5---5-5---5-5---5-5-----------|
C|-5-5---5-5---5-5---5-5-----------|

Pre-chorus 3
(Same as "Pre-Chorus 1")

Chorus 2
(Same as "Chorus 1")

Out-Chorus
(Guitar 1 & 2 play "Chorus 1" except don't play the last measure, while guitar 3 plays this)
Guitar 3
D|---14b--(16)r14------14b--(16)r14-|----------------------------|
A|----------------------------------|----------------------------|
F|----------------------------------|----------------------------|
C|----------------------------------|-12~\-----------------------|
G|----------------------------------|----------------------------|
C|----------------------------------|----------------------------|
     Ph (F#)

D|-------------------------------------------|-------------------|
A|-------------------------------------------|-------------------|
F|------------------------14-12-14-12---10---|-------------------|
C|---14b(15)r14--12-14-12--------------------|-12~\--------------|
G|-------------------------------------------|-------------------|
C|-------------------------------------------|-------------------|
                          Ph(F#)Ph(F)

D|---------------------------------------|-12b(15)--12----------------|
A|-13----13---13b(15)-13----13---13b(15)-|-------------15-12---15-----|
F|----12-----------------12--------------|----------------------------|
C|---------------------------------------|----------------------------|
G|---------------------------------------|----------------------------|
C|---------------------------------------|----------------------------|

D|---------------------|
A|-15--------13---15\--|
F|---------------------|
C|---------------------|
G|---------------------|
C|---------------------|

Outro
Guitar 1 & 2 (Play x2)
D|----------------------------------|---------------------------------|
A|-------------------------9b-------|---------------------------------|
F|----------------------------------|---------------------------------|
C|-0---0-0-3-0-0-3-0-0-3-0----------|-0---0-0-3-0-0-3-0-0-3-0-5---6---|
G|-0---0-0-3-0-0-3-0-0-3-0----------|-0---0-0-3-0-0-3-0-0-3-0-5---6---|
C|-0---0-0-3-0-0-3-0-0-3-0----------|-0---0-0-3-0-0-3-0-0-3-0-5---6---|

D|----------------------------------|---------------------------------|
A|-------------------------9b9b9b9b-|---------------------------------|
F|------- (bend the "9" ------------|---------------------------------|
C|----- a half step up and ---------|---------------------------------|
G|-- hold that position while ------|---------------------------------|
C| plucking that string 3 more times) --------------------------------|

/     slide up
\     slide down
h     hammer-on
p     pull-off
~     vibrato
Ph () pinched harmonic the pitch should be the "()" note (Pinch the note
        directly above the "Ph")
PM... palm mute
x     mute
b()   bend to the pitch of the "()" note
r     release the bend to the original note
Tap to rate this tab
# A B C D E F G H I J K L M N O P Q R S T U V W X Y Z