Guitaretab - guitar tabs
Song name
# A B C D E F G H I J K L M N O P Q R S T U V W X Y Z

Pillar - Frontline tab

----------------------------------------------------------------------------
			     Frontline - Pillar
----------------------------------------------------------------------------
Tabbed by:nickman022
Email: nickman02@charter.net
Tuning: Drop C
100% correct
Intro:

e|-------------------------------------------------------------------------|
B|-------------------------------------------------------------------------|
G|-------------------------------------------------------------------------|
D|-----8-8-7-7---------8-8-7-7-------10-10-8-8---------10-10-7-7-----------|
A|-----5-5-5-5---------5-5-5-5-------8--8--8-8---------0--0--0-0-----------|
E|-5-5---------5-5-5-5-----------8-8-----------0-0-0-0---------------------|

e|-------------------------------------------------------------------------|
B|-------------------------------------------------------------------------|
G|-------------------------------------------------------------------------|
D|-----8-8-7-7---------8-8-7-7-------10-10-8-8---------10-10-7-7--7h8p7----|
A|-----5-5-5-5---------5-5-5-5-------8--8--8-8---------0--0--0-0-------8---|
E|-5-5---------5-5-5-5-----------8-8-----------0-0-0-0---------------------|
[ Tab from: http://www.guitaretab.com/p/pillar/51254.html ]
I do this for fun and Noah does something like it live, only his is fast and complex. 
play it over the intro track.
e|-------------------------------------------------------------------------|
B|-------------------------------------------------------------------------|
G|-------------------------------------------------------------------------|
D|-X-X-X-X-X-X-10h12-p10-8-7-10-8--10p8----8--10p8----8--10p8---8h10-------|
A|-X-X-X-X-X-X--------------------------10---------10---------10-----------|
E|-X-X-X-X-X-X-------------------------------------------------------------|

e|---------------------------------------------------------------------------|
B|---------------------------------------------------------------------------|
G|------------12-15b-15b-15--15brp12--12-------------------------------------|
D|--10h12-/15-----------------------12---------------------------------------|
A|---------------------------------------------------------------------------|
E|---------------------------------------------------------------------------|

i throw pinches in on some of those 15b's.


| /  slide up
| \  slide down
| h  hammer-on
| p  pull-off
| ~  vibrato
| +  harmonic
| x  Mute note
============================================================================
Related for Frontline tab
Advertisement will be closed in 10 seconds