Song name
# A B C D E F G H I J K L M N O P Q R S T U V W X Y Z

Pillar - A Shame Acoustic tab

Album: Pillar Broken Down E.P.
This is the live acoustic version of ashamed.

Standard Tuning

Intro and verse

-----------------------------------------------|
-----------------------------------------------|
------5---7---5--------------------------------|
--2---5---7---5---2----------------------------|
--0---3---5---3---0----------------------------|
-x-x-x-x-x-x-x-x-x-x-x-x-x-x-x-x-x-x-x-x-x-x-x-|

Chorus

-----------------------------------------------|
-----------------------------------------------|
--5-------5-------7----------------------------|
--5---2---5---2---7----------------------------|
--3---0---3---0---5----------------------------|
-x-x-x-x-x-x-x-x-x-x-x-x-x-x-x-x-x-x-x-x-x-x-3-|
Tap to rate this tab
# A B C D E F G H I J K L M N O P Q R S T U V W X Y Z