Guitaretab - guitar tabs
Song name
# A B C D E F G H I J K L M N O P Q R S T U V W X Y Z

Pillar - Guess Whos Won tab

drop-D tuning

Here's the main riff, of the song:
----------------------------------------------------------------------------|
----------------------------------------------------------------------------|
----------------------------------------------------------------------------|
-----------------------3----------------------------------------------------|
--------3--5------3h5---------3h5--------3--5-----3--4--5-------------------|
----0--------0------------0----------0------------3--4--5---0---------------|
[ Tab from: http://www.guitaretab.com/p/pillar/51979.html ]
part of the way through the song,
Travis adds a little trill to the end of the riff:
----------------------------------------------------------------------------|
----------------------------------------------------------------------------|
----------------------------------------------------------------------------|
--------------------3----------------------------------------5p3---3--------|
-----3--5------3h5-----------3h5--------3--5------3--4--5--------5-----3h5--|
 0--------0-------------0----------0---------0---3--4--5------------0------|
Related for Guess Whos Won tab