Song name
# A B C D E F G H I J K L M N O P Q R S T U V W X Y Z

Pillar - Further From Myself tab

Hey All you Guitar GEEKS! I saw a tab saying they were working on the intro from
further from my self... I have taken this from the Broken Down EP its the same on
the live and studio..I have never heard of a electric version this is the acoustic
Tuning Drop D-DADGBE

E----------------------------------------|
B----------------------------------------|
G----------------------------------------|
D---------9--11p9--12p9--12/14-----------|
A------9---------------------------------|
D---9------------------------------------|

E----------------------------------------|
B----------------------------------------|
G----------------------------------------|
D---------9--11p9--11/12-----------------|
A------9---------------------------------|
D---9------------------------------------|

E----------------------------------------|
B----------------------------------------|
G----------------------------------------|
D---------9--11p9--12p9--12/14-------12--|
A------9-----------------------------12--|
D---9--------------------------------12--|

then it goes on to the rhythm part
E----------------------------------------|
B----------------------------------------|
G----------------------------------------|
D--9-9-9-9--12-12-12-12------------------|
A--9-9-9-9--12-12-12-12------------------|
D--9-9-9-9--12-12-12-12------------------|

Somewhere in there is the little lead as follows refer to recording

E----------------------------------------|
B----------------------------------------|
G--14------------------------------------|
D-----14--12h14--11p12h11----------------|
A----------------------------------------|
D----------------------------------------|

There you have it..i know some of may say there is another little lick but i havent 
that out its hard to hear it...sorry
so grab you acoustic add a little delay and as jack black (aka Mr. Schneebly) said "Lets 
Rockin!"
I LOVE THAT MOVIE
well peace out and have fun!

please comment and tell me how close i am
Tap to rate this tab
# A B C D E F G H I J K L M N O P Q R S T U V W X Y Z