Song name
# A B C D E F G H I J K L M N O P Q R S T U V W X Y Z

Pillar - Galactic Goose tab

Band- Pillar
Song- Galactic Groove

(0:32)           Beginning of end Solo
e|-/12-12-12-12-11-12-------------------------------|------------------------|
B|-/12-12-12-12-11-12-------------------------------|------------------------|
G|-/12-12-12-12-11-12-----12\11-9-7-9-11-12-11-12---|--7h9-7h9-/12-----------|
D|--------------------------------------------------|------------------------|
A|--------------------------------------------------|------------------------|
E|--------------------------------------------------|------------------------|

Solo and adlibs played in D Major Scale (Below) primaraly on the G string
e|---5---7---9-10----12----14-15----17---------------------------------------|
B|---5---7-8---10----12----14-15----17---------------------------------------|
G|-4---6-7---9----11-12----14----16------------------------------------------|
D|-4-5---7---9----11-12----14----16-17---------------------------------------|
A|-4-5---7---9-10----12----14----16-17---------------------------------------|
E|---5---7---9-10----12----14-15----17---------------------------------------|

Tap to rate this tab
 
# A B C D E F G H I J K L M N O P Q R S T U V W X Y Z