Song name
# A B C D E F G H I J K L M N O P Q R S T U V W X Y Z

Pillar - Light At My Feet tab

Band- Pillar
Song- Light At My Feet

Intro (2x)

------------------------------------------------------------------------------------------|
------------------------------------------------------------------------------------------|
10/12--12--12--10--10--10/13--13--13--10--10--10/12--12--12--10--10--10--8--8--8--5--5--5-|
-x/x----x---x---x---x---x/xx---x---x---x---x---x/x----x---x---x---x---x--x--x--x--x--x--x-| 
-8/9----9---9---7---7---7/10--10--10---7---7---7/9----9---9---7---7---7--5--5--5--3--3--3-|
------------------------------------------------------------------------------------------|

Verse (with effects)                                             Second time only

----------------------------------------------------------------|----------------------------|
----------------------------------------------------------------|----------------------------|
-------5-----5-----------5-----5-----------5-----5--------8--7--|----------------------------|
-8--8-----8-----8--7--7-----7-----7--5--5-----5-----5--5--------|--10--8---------------------|
----------------------------------------------------------------|---------10--8--------------|
----------------------------------------------------------------|-----------------11--10--8--|

Chorus=Intro

End Bridge

------------------------------------5--8
--3--6--5--5/6--3--6--5--5/6--8--6------
----------------------------------------

Chorus

Tap to rate this tab
 
# A B C D E F G H I J K L M N O P Q R S T U V W X Y Z