Song name
# A B C D E F G H I J K L M N O P Q R S T U V W X Y Z

Pillar - Simply tab

Band- Pillar
Song- Simply

This song is played in drop C
Drop C tunning is:
(High to Low)
1st D
2nd A
3rd F
4th C
5th G
6th C

INTRO:

The other tabs for this song just play single notes for the intro
and they left out the constant bass note

Here is the intro with the constant bass note on the
C string. It gives it a fuller sound.

D----------------------------------------------------|
A----------------------------------------------------|   Play
F--------3------5-------0-------7------3------5-5----|   x11
C-----0------0------0-------0------0------0----------|
G----------------------------------------------------|
C----------------------------------------------------|
                                                        then play this
D----------------------------------------------------|   x1
A----------------------------------------------------|
F--------3------5-----2--0---------------------------|
C-----0-----0------0--------3-2-0--------------------|
G----------------------------------------------------|
C----------------------------------------------------|


verse 1:

D----------------------------------------------------|
A----------------------------------------------------|
F----------------------------2h3---------------------|
C--------3-----2h3-----5-----------------------------|
G-----0-----0-------0-----0--------------------------|
C----------------------------------------------------|

D----------------------------------------------------|
A----------------------------------------------------|
F----------------------------------------------------|
C--------3-----2h3-----5------3p2--------------------|
G-----0-----0-------0-----0--------------------------|
C----------------------------------------------------|

pre chorus:

D-------------------|
A-------------------|
F---------------5---|
C-----0----2----5---|
G-----0----2----3---|
C-----0----2--------|


Chorus:

D----------------------------------------------------|
A----------------------------------------------------|
F--------------5-----------2-------------------------|
C----0-0---------0-0----------3-3-xx-3-3-------------|
G----0-0--3--5---0-0--3--5----3-3-xx-3-3-------------|
C----0-0---------0-0----------3-3-xx-3-3-------------|

D-------------------------------------------------------------|
A-------------------------------------------------------------|
F------------------------------------------10-10-10-10-10-10--|
C----x--3h5--5-5---x--3h5--5-5--x--3-3-3---10-10-10-10-10-10--|
G----x--3h5--5-5---x--3h5--5-5--x--3-3-3---8--8--8--8--8--8---|
C----x--3h5--5-5---x--3h5--5-5--x--3-3-3---8--8--8--8--8--8---|

Play verse 2(same as verse 1) and pre chorus
Play Chorus again


Bridge:

On the 5b it's 2 full bends

D----------------------------------------------------|
A----------------------------------------------------|
F-------------------------------10-10-10-------------|
C----0-0------0-0------0-0------10-10-10-------------|
G----0-0--5b--0-0--5b--0-0--5b--8--8--8--------------|
C----0-0------0-0------0-0------8--8--8--------------|

D----------------------------------------------------|
A----------------------------------------------------|
F-------------------------------10-10-10-------------|
C----0-0------0-0------0-0------10-10-10-------------|
G----0-0--5b--0-0--5b--0-0--5b--8--8--8--------------|
C----0-0------0-0------0-0------8--8--8--------------|

D--------------------|
A--------------------|
F--------------------|
C----0--2--3--5------|
G----0--2--3--5------|
C----0--2--3--5------|

D----------------------------------------------------|
A----------------------------------------------------|
F-------------------------------10-10-10-------------|
C----0-0------0-0------0-0------10-10-10-------------|
G----0-0--5b--0-0--5b--0-0--5b--8--8--8--------------|
C----0-0------0-0------0-0------8--8--8--------------|

D--------------------|
A--------------------|
F--------------------|
C----0--2--3--5------|
G----0--2--3--5------|
C----0--2--3--5------|

D----------------------------------------------------|
A----------------------------------------------------|
F-------------------------------10-10-10-------------|
C----0-0------0-0------0-0------10-10-10-------------|
G----0-0--5b--0-0--5b--0-0--5b--8--8--8--------------|
C----0-0------0-0------0-0------8--8--8--------------|

D-----------------------------------------------------------|
A-----------------------------------------------------------|
F-------------------------10---------10---------10-----10---|
C----0--2--3--5---------10--10-----10--10-----10--10---10---|
G----0--2--3--5--------8------8---8------8---8------8--8----|
C----0--2--3--5------/8---------8----------8-----------8----|

Play Chorus again

outro:

D-------------------------------------|
A-------------------------------------|
F------------------------10-10-10-----|
C----0-0--0-0--0-0---xx--10-10-10-----|
G----0-0--0-0--0-0---xx--8--8--8------|
C----0-0--0-0--0-0---xx--8--8--8------|
Tap to rate this tab
# A B C D E F G H I J K L M N O P Q R S T U V W X Y Z