Song name
# A B C D E F G H I J K L M N O P Q R S T U V W X Y Z

Pillar - Time To Play tab

Band- Pillar
Song- Time To Play

Intro/Verse
e|---------------------------------------------------------------------------|
B|---------------------------------------------------------------------------|
G|---------------------------------------------------------------------------|
D|---------------------------------------------------------------------------|
A|---------------------------------------------------------------------------|
E|-0-5-6-0-5-0-5-0-5-6-0-5-0-3~~---------------------------------------------|

e|--------------------|------------------------------------------------------|
B|--------------------|------------------------------------------------------|
G|------------5-6-----|------------------------------------------------------|
D|--7-7-7-7-5-5-6-5-5-|--------2---------------------------------------------|
A|--7-7-7-7-5-3-4-5-5-|--------2---------------------------------------------|
E|--5-5-5-5-3-----3-3-|-(X7)---0---------------------------------------------|

  Bridge
e|---------------------------------------------------------------------------|
B|---------------------------------------------------------------------------|
G|---------------------------------------------------------------------------|
D|-7-8-9-10-11-12------------------------------------------------------------|
A|-7-8-9-10-11-12------------------------------------------------------------|
E|-5-6-7-8--9--10------------------------------------------------------------|

  Verse Variation
e|---------------------------------------------------------------------------|
B|---------------------------------------------------------------------------|
G|---------------------------------------------------------------------------|
D|-7-7-9-9-7~~-7-7-9-7-7-9---------------------------------------------------|
A|---------------------------------------------------------------------------|
E|---------------------------------------------------------------------------|

  Outro
e|-------------------------|-------------------------------------------------|
B|-------------------------|-------------------------------------------------|
G|-------------------------|-------------------------------------------------|
D|-7-7-7-7-7--5-5-5-5--5-2-|-7-8-9-12-11-12----------------------------------|
A|-7-7-7-7-7--5-5-5-5--5-2-|-x-x-x-x--x--x-----------------------------------|
E|-5-5-5-5-5--3-3-3-3--3-0-|-5-6-7-8--9--10----------------------------------|

Tap to rate this tab
# A B C D E F G H I J K L M N O P Q R S T U V W X Y Z