Song name
# A B C D E F G H I J K L M N O P Q R S T U V W X Y Z

Pillar - Chasing Shadows At Midnight tab

verse
clean w/chorus and delay

dont use a pick for this or it wont sound clean. must use fingers

D---------------------------------------------|
A---------------------------------------------|
F-10------------------10----------------------|
C-0----10---12---8----0----10---12---12---10--|
G------0-------------------0--------------0---|
C-----------8----5--------------8----8--------|
let ring......................................


chorus
heavy dist

use a pick now


D------------------------------------------------------------------------|
A------------------------------------------------------------------------|
F-----------------------------------------------------7------------------|
C-0--------------7----------------7--8-------------------5---------------|
G-0-5---5h77778--7-10---7h10101010---8-10---8h10101010---5-8-5h8-5h8-5h8-|
C-0---0----------7----7--------------8----8--------------5---------------|
       pm  ..      pm      . .              pm  . .


D------------------------------------------------------------------------|
A------------------------------------------------------------------------|
F-----------------------------------------------------7------------------|
C-0--------------7----------------7--8-------------------8--88-88880-----|
G-0-5---5h77778--7-10---7h10101010---8-10---8h10101010---8--88-88880-----|
C-0---0----------7----7--------------8----8--------------8--88-88880-----|
       pm  ..      pm      . .              pm  . .                let ring
Tap to rate this tab
# A B C D E F G H I J K L M N O P Q R S T U V W X Y Z