Song name
# A B C D E F G H I J K L M N O P Q R S T U V W X Y Z

Pillar - Elysian tab

Help us improve GuitareTab! Take a short survey!
 :: Home > Guitar Tabs > P > Pillar > Elysian

Pillar - Elysian


This tab has been rated a 5.00 out of 5 for accuracy.
(2 votes) HolyBlood8, you have already voted on this tab.

Click here for a plain text version of this song (for better printing)

Add this tab to your list of favorite tabs

 This tab was submitted by HolyBlood8

All songs owned by Integrity and Brentwood-Benson are used by permission.
If you make copies of any song on this website, be sure to report your usage to CCLI.


--------------------------------------------------------------------------------

Song: Elysian
Artist: Pillar
Album: The Reckoning
Flicker Records

Drop C tuning

Guitar 1
D-----------------------------------------------------|
A--8-----6-5-----5----------------8-----6-5-----5-----|
F----5-7-----------5-----5-4--------5-7-----------5-4-|
C------------5-7-----5-7-----5--------------5-7-------|
G------------------------------5----------------------|
C-----------------------------------------------------|

Guitar 2
(NOTE) Guitar 2 comes in a little after Guitar 1.

D----------------------------------------------------------------------|
A-13----------------------------------------13-------------------------|
F----------10-9-------9------------------------------10-9-------9------|
C----10-12--------------10-------10-9----------10-12--------------10-9-|
G---------------10-12------10-12------10------------------10-12--------|
C----------------------------------------12----------------------------|


Thats it please rate
Related for Elysian tab