Song name
# A B C D E F G H I J K L M N O P Q R S T U V W X Y Z

Pillar - For The Love Of The Game tab

-------------------------------------------------------------------------------

			     Pillar - For The Love Of The Game

-------------------------------------------------------------------------------

Tabbed by: maps.run

Email:	maps.run@gmail.com

Tuning: Drop C (CGCFAD)


Not perfect, but it should get you started. Still working on the bridge and outro. 


**Intro:**

D---------------------------------------------------|
A---------------------------------------------------|
F---------------------------------------------------|
C-x0------------------------------------------------|
G-x0-5-5-3-0-----3----------5-5-3-0-----3--3-0------|
C-x0--------3-3---3-3-----0--------3-3---3----------|

D---------------------------------------------------|
A---------------------------------------------------|
F---------------------------------------------------|
C---------------------------------------------------|
G----5-5-3-0-----3----------5-5-3-0-----------------|
C--0--------3-3---3-3-----0--------3-3-----5h6p5-3--|

**Verse**

D-----------------------------------------------------|
A-----------------------------------------------------|
F-----------------------------------------------------|
C--x-0-0-----x-0-0-----x-0-0-----x-3-------------0-0--|
G--x-0-0-----x-0-0-----x-0-0-----x-3-------------0-0--|
C--x-0-0-----x-0-0-----x-0-0-----x-3--3-5h6p5-3--0-0--|

D-----------------------------------------------------|
A-----------------------------------------------------|
F-----------------------------------------------------|
C--x-0-0-----x-0-0-----x-3-------------0-0------------|
G--x-0-0-----x-0-0-----x-3-------------0-0------------|
C--x-0-0-----x-0-0-----x-3--3-5h6p5-3--0-0------------|

D-----------------------------------------------------|
A-----------------------------------------------------|
F-----------------------------------------------------|
C--x-x-0-0---x-x-0-0---x-x-3-3--5-5--0-0--------------|
G--x-x-0-0---x-x-0-0---x-x-3-3--5-5--0-0--------------|
C--x-x-0-0---x-x-0-0---x-x-3-3--5-5--0-0--------------|

D-----------------------------------------------------|
A-----------------------------------------------------|
F-----------------------------------------------------|
C--x-x-0-0---x-x-0-0---x-x-3-3--5-5-------------------|
G--x-x-0-0---x-x-0-0---x-x-3-3--5-5-------------------|
C--x-x-0-0---x-x-0-0---x-x-3-3--5-5-------------------|

**Chorus**

D-------------------------------------------------------------------------------|
A-------------------------------------------------------------------------------|
F-------------------------------------------------------------------------------|
C--/8--8-8--8-8-8-----10--10-10--10-10-10-----0-0-3-3-2-2-3-3-5-5-3-3-2-2-3-3---|
G--/8--8-8--8-8-8-----10--10-10--10-10-10---------------------------------------|
C--/8--8-8--8-8-8-----10--10-10--10-10-10---------------------------------------|

D-------------------------------------------------------------------------------|
A-------------------------------------------------------------------------------|
F--------------------------------------------------------------------5-5-2-2----|
C--/8--8-8--8-8-8-----10--10-10--10-10-10-----0-0-3-3-2-2-3-3-5-5-3-3-----------|
G--/8--8-8--8-8-8-----10--10-10--10-10-10---------------------------------------|
C--/8--8-8--8-8-8-----10--10-10--10-10-10---------------------------------------|

D---------------------------------------------------|
A---------------------------------------------------|
F---------------------------------------------------|
C--8--8-8--8-8-8-----10--10-10--10-10-10------------|
G--8--8-8--8-8-8-----10--10-10--10-10-10------------|
C--8--8-8--8-8-8-----10--10-10--10-10-10------------|

D---------------------------------------------------|
A---------------------------------------------------|
F---------------------------------------------------|
C-12-------15-------8-----11------------------------|
G-12(x8)---15(x8)---8(x7)-11------------------------|
C-12-------15-------8-----11------------------------|

D---------------------------------------------------|
A---------------------------------------------------|
F---------------------------------------------------|
C---0--------3--------8--------5--------------------|
G---0(x8)----3(x8)----8(x8)----5(x8)----------------|
C---0--------3--------8--------5--------------------|

D---------------------------------------------------|
A---------------------------------------------------|
F---------------------------------------------------|
C---0--------3--------8--------5-----10-------------|
G---0(x8-----3(x8)----8(x8)----5(x7)-10-------------|
C---0--------3--------8--------5-----10-------------|

**Interlude**

D---------------------------------------------------|
A---------------------------------------------------|
F---------------------------------------------------|
C---------------------------------------------------|
G----5-5-3-0-----3--3-0-----5-5-3-0-----3--3-0------|
C--0--------3-3---3-------0--------3-3---3-----3----|

D---------------------------------------------------|
A---------------------------------------------------|
F---------------------------------------------------|
C---------------------------------------------------|
G----5-5-3-0-----3--3-0-----5-5-3-0-----------------|
C--0--------3-3---3-------0--------3b---------------|

**Verse**
same as 1st Verse

**Chorus**

D-------------------------------------------------------------------------------|
A-------------------------------------------------------------------------------|
F-------------------------------------------------------------------------------|
C--/8--8-8--8-8-8-----10--10-10--10-10-10-----0-0-3-3-2-2-3-3-5-5-3-3-2-2-3-3---|
G--/8--8-8--8-8-8-----10--10-10--10-10-10---------------------------------------|
C--/8--8-8--8-8-8-----10--10-10--10-10-10---------------------------------------|

D------------------------------------------------------------------------------|
A------------------------------------------------------------------------------|
F--------------------------------------------------------------------5-5-2-2---|
C--/8--8-8--8-8-8-----10--10-10--10-10-10-----0-0-3-3-2-2-3-3-5-5-3-3----------|
G--/8--8-8--8-8-8-----10--10-10--10-10-10--------------------------------------|
C--/8--8-8--8-8-8-----10--10-10--10-10-10--------------------------------------|

D---------------------------------------------------|
A---------------------------------------------------|
F---------------------------------------------------|
C--8--8-8--8-8-8-----10--10-10--10-10-10------------|
G--8--8-8--8-8-8-----10--10-10--10-10-10------------|
C--8--8-8--8-8-8-----10--10-10--10-10-10------------|

D---------------------------------------------------|
A---------------------------------------------------|
F---------------------------------------------------|
C-12-------15-------8-----11~-----------------------|
G-12(x8)---15(x8)---8(x7)-11~-----------------------|
C-12-------15-------8-----11~-----------------------|

D---------------------------------------------------|
A---------------------------------------------------|
F---------------------------------------------------|
C--\0--------3--------8--------5--------------------|
G--\0(x8)----3(x8)----8(x8)----5(x8)----------------|
C--\0--------3--------8--------5--------------------|

D---------------------------------------------------|
A---------------------------------------------------|
F---------------------------------------------------|
C---0--------3--------8--------5-----10-------------|
G---0(x8-----3(x8)----8(x8)----5(x7)-10-------------|
C---0--------3--------8--------5-----10-------------|

**Bridge**


**Chorus**
D-------------------------------------------------------------------------------|
A-------------------------------------------------------------------------------|
F-------------------------------------------------------------------------------|
C---------------------------------------------0-0-3-3-2-2-3-3-5-5-3-3-2-2-3-3---|
G-------------------------------------------------------------------------------|
C-------------------------------------------------------------------------------|

D-------------------------------------------------------------------------------|
A-------------------------------------------------------------------------------|
F--------------------------------------------------------------------5-5-2-2----|
C--/8--8-8--8-8-8-----10--10-10--10-10-10-----0-0-3-3-2-2-3-3-5-5-3-3-----------|
G--/8--8-8--8-8-8-----10--10-10--10-10-10---------------------------------------|
C--/8--8-8--8-8-8-----10--10-10--10-10-10---------------------------------------|

D---------------------------------------------------|
A---------------------------------------------------|
F---------------------------------------------------|
C--8--8-8--8-8-8-----10--10-10--10-10-10------------|
G--8--8-8--8-8-8-----10--10-10--10-10-10------------|
C--8--8-8--8-8-8-----10--10-10--10-10-10------------|

D---------------------------------------------------|
A---------------------------------------------------|
F---------------------------------------------------|
C-12-------15-------8-----11~-----------------------|
G-12(x8)---15(x8)---8(x7)-11~-----------------------|
C-12-------15-------8-----11~-----------------------|

D---------------------------------------------------|
A---------------------------------------------------|
F---------------------------------------------------|
C--\0--------3--------8--------5--------------------|
G--\0(x8)----3(x8)----8(x8)----5(x8)----------------|
C--\0--------3--------8--------5--------------------|

D---------------------------------------------------|
A---------------------------------------------------|
F---------------------------------------------------|
C---0--------3--------8--------5-----10-------------|
G---0(x8-----3(x8)----8(x8)----5(x7)-10-------------|
C---0--------3--------8--------5-----10-------------|

**Outro**

Notes:
-Send any comments and corrections to maps.run@gmail.com
Tap to rate this tab
# A B C D E F G H I J K L M N O P Q R S T U V W X Y Z