Guitaretab - guitar tabs
Song name
# A B C D E F G H I J K L M N O P Q R S T U V W X Y Z

Pillows - Sweet Baggy Days tab

-------------------------------------------------------------------------------
			     Sweet Baggy Days - The Almighty Pillows
-------------------------------------------------------------------------------
Tabbed by: ZiR23

Tuning:Standard

*sorry, but i can't quite make out the rest of it but this is the only tab out there of 
song, from what i know so at least be happy for that. im about 95% sure with the way 
tab turned out. any corrections feel free to email me at z1r_23@hotmail.com.*
[ Tab from: http://www.guitaretab.com/p/pillows/105685.html ]
e|--5------5-------5------5-----9-9-9-9--------------------------------------|
B|-----3--------3-----3---------------------2-----2h3-2-----2----------------|
G|---------------------------------------------2---------4-----2--1-/--2-2---|
D|---------------------------------------------0-----------------(0)----(0)--|
A|---------------------------------------------------------------------------|
E|---------------------------------------------------------------------------|

repeat 2x

3rd time its slightly different.

e|--5------5-------5------5-----9-10-9-7-------------------------------------|
B|-----3--------3-----3---------------------2-----2h3-2-----2----------------|
G|---------------------------------------------2---------4-----2--1-/--2-2---|
D|---------------------------------------------0-----------------(0)----(0)--|
A|---------------------------------------------------------------------------|
E|---------------------------------------------------------------------------|


and sorry, i can't make out the chords during the fourth time he plays it so.....yeah....
Related for Sweet Baggy Days tab