Song name
# A B C D E F G H I J K L M N O P Q R S T U V W X Y Z

Pillows - Youngster tab

Help us improve GuitareTab! Take a short survey!
Played through most of the song.
x3
----------------------|
----------------------|
----------------------|
-10-10--5-5--3-3--5-5-|
-10-10--5-5--3-3--5-5-|
----------------------|

Played every time until clapping.
-------------------------------------|
-------------------------------------|
-------------------------------------|
-10-10--5-5--5--10-10-10-10-10-10-10-|
-10-10--5-5--5--10-10-10-10-10-10-10-|
-------------------------------------|

Play every part above three times in order.

play faster than the other parts
----------------------------------|
----------------------------------|
----------------------------------|
----------------------------------|
-------3---5-55----------5-55--33-|
-5- 0-(8)--5-55----5--0--5-55--33-|
(8)(8)            (8)(8)  (3 )(3)


x3
----------------------|
----------------------|
----------------------|
-10-10--5-5--3-3--5-5-|
-10-10--5-5--3-3--5-5-|
----------------------|

-------------------------------------|
-------------------------------------|
-------------------------------------|
-10-10--5-5--5--10-10-10-10-10-10-10-|
-10-10--5-5--5--10-10-10-10-10-10-10-|
-------------------------------------|


----------------------------|
----------------------------|
----------------------------|
-10-10--5-5--3-3--5-5-10-10-|
-10-10--5-5--3-3--5-5-10-10-|
----------------------------|

Clapping
----------------------------|
----------------------------|
----------------------------|
-10-10--5-5--3-3--5-5-10-10-|
-10-10--5-5--3-3--5-5-10-10-|
----------------------------|

Clapping

Reapeat everything up to the first clapping part.

-------------------------|
-------------------------|
-------------------------|
-3-3--5-5--10-10--5-5----|
-3-3--5-5--10-10--5-5----|
-------------------------|reapeat 3 times

-----------------------------------|
-----------------------------------|
-----------------------------------|
-3-3--5-5--10-10-10-10-10-10-10-10-|
-3-3--5-5--10-10-10-10-10-10-10-10-|
-----------------------------------|
Related for Youngster tab