Song name
# A B C D E F G H I J K L M N O P Q R S T U V W X Y Z

Pillows - Wake Up Dodo tab

Song: Wake up! dodo
Artist: the pillows
Album: Wake Up! Wake Up! Wake Up!

These guys are an awesome band, and I was lucky enough to
see them in concert, opening with this song. It's pretty
straightforward, hope you guys enjoy it.


Guitar 1 pre verse
e|-------------------------------------|
B|-------------------------------------|
G|-------------------------------------|
D|-------6-----------------6-----------|
A|-0-6h7---7\4---5---0-6h7---7\4---5---|
E|-------------------------------------|

Guitar 2 pre verse
e|-------------------------------------|
B|-------------------------------------|
G|-----------------------------9--\4---|
D|-------------------------------------|
A|-------------------------------------|
E|-------------------------------------|


Guitar 1 verse
e|-------------------------------------|
B|-------------------------------------|
G|-------------------------------------|
D|-------6-----------------6-----------|
A|-0-6h7---7\4---5---0-6h7---7\4---5---|
E|-------------------------------------|

Guitar 2 verse
e|----------------------------------|
B|----------------------------------|
G|-6-6-6-6-6-6-6-6-6-6-6-6-4-4-4-4--|
D|----------------------------------|
A|----------------------------------|
E|----------------------------------|


Guitar 1 and 2 pre chorus (3x)
e|-------------------------------------|
B|-------------------------------------|
G|---00--0-2-0---0000------------------|
D|-2-00-20-2-0-2-0000------------------|
A|-2-XX-2X-0-X-2-XXXX------------------|
E|-0-33-03---3-0-3333------------------|

e|------------------|
B|------------------|
G|---00--0-0-22222--|
D|-2-00-20-0-22222--|
A|-2----2----00000--|
E|-0-33-03-3--------|


Guitar 2 Chorus
e|---------------------------------9------|
B|-----7/-----9/-------10-------10---10\--|
G|---7------9-------11-------11-----------|
D|-7------9------11-------11--------------|
A|----------------------------------------|
E|----------------------------------------|

e|-----------------------------------|
B|-----7/-----9/-11-9---11-9---11-9--|
G|---7------9----11-9---11-9---11-9--|
D|-7------9------9--7---9--7---9--7--|
A|-----------------------------------|
E|-----------------------------------|

e|---------------------------------9-------------------10-----|
B|-----7/-----9/-------10-------10---10-------12----12----12--|
G|---7------9-------11-------11------------11-----------------|
D|-7------9------11-------11------------12-------12-----------|
A|------------------------------------------------------------|
E|------------------------------------------------------------|


Guitar 1 post chorus
e|---------------------------------------|
B|---------------------------------------|
G|---------------------------------------|
D|-11-11-11-12-12-12-13-13-13--14---14\--|
A|-X--X--X--X--X--X--X--X--X---X----X-\--|
E|-9--9--9--10-10-10-11-11-11--12---12\--|


Fill 1 (guitar 2)
e|-----------|
B|-----------|
G|--6---9----|
D|----7---9--|
A|-----------|
E|-----------|


Guitar 2 Solo
e|-------------------------------------------|
B|--5----------------------------------------|
G|------6---4-6-7-6-4---6---6---4-6-7-6-4----|
D|----------------------------------------5--|
A|-------------------------------------------|
E|-------------------------------------------|


Guitar 2 Outro
e|--------------------------------|
B|--------------------------------|
G|--------------------------------|
D|--11--11-11--11--11--XX--9--9\--|
A|--X---X--X---X---X---XX--X--X\--|
E|--9---9--9---9---9---XX--7--7\--|


Those are all the parts, everything's right except maybe the chorus, but it's pretty close.
The orders fairly simple, I'll let you guys figure it out.

Off to learn Japanese.
Later.
Tap to rate this tab
 
# A B C D E F G H I J K L M N O P Q R S T U V W X Y Z