Song name
# A B C D E F G H I J K L M N O P Q R S T U V W X Y Z

Pillows - Tsuyogari tab

The Pillows - Tsuyogari (Yoshiaki Manabe Lead Guitar Part)

I=-Intro-=I
E|---------------|-------------|-----------|-----------|
H|---------------|-------------|-----------|-----------|
G|---------------|-------------|-----------|-----------|
D|------2---2/3--|--2-0--------|------3----|-----------|
A|--2/3---3------|------3-0/1--|----1---1--|----0---0--|
E|---------------|-------------|--3--------|--3---1----|

E|-------------|-----------|--0-0-0-0--|
H|-------------|-----------|--3-1-3-1--|
G|-------------|-----------|--0-0-0-0--|
D|--------3----|--2-2/3-2--|-----------|
A|------3---3--|--3-----3--|-----------|
E|--3/4--------|-----------|-----------|



I=-Main Part 1-=I
E|-------1---1--|-----------|--------------0--|--0-0-0-0--|
H|--------------|------1----|----1---0/1------|--3-1-3-1--|
G|--2/3----3----|--3-2---2--|--1---1-----3----|--0-0-0-0--|
D|--------------|-----------|-----------------|-----------|
A|--------------|-----------|-----------------|-----------|
E|--------------|-----------|-----------------|-----------|

E|-------1-----1--|-----------|------1----|-----------|-----------|
H|----------------|------1----|----1---1--|--1-1-1-1--|--3-3-3-3--|
G|--2/3----2/3----|--3-2---2--|--1--------|--2-2-2-2--|--4-4-4-4--|
D|----------------|-----------|-----------|-----------|-----------|
A|----------------|-----------|-----------|-----------|-----------|
E|----------------|-----------|-----------|-----------|-----------|

E|-----------|-----------|-----------|-----------|
H|--3-3-3-3--|--3-3-3-3--|--6-6-6-6--|--6-5-6-6--|
G|--4-4-4-4--|--4-4-4-4--|--7-7-7-7--|--7-5-7-7--|
D|-----------|-----------|-----------|-----------|
A|-----------|-----------|-----------|-----------|
E|-----------|-----------|-----------|-----------|

E|-----------|-----------|-----------|-----------|
H|--3-3-3-3--|--8-8-8-8--|--5-5-5-5--|--3-3-3-3--|
G|--4-4-4-4--|--9-9-9-9--|--5-5-5-5--|--4-4-4-4--|
D|-----------|-----------|-----------|-----------|
A|-----------|-----------|-----------|-----------|
E|-----------|-----------|-----------|-----------|

E|-----------|-----------|-----------|-----------|
H|--1-1-1-1--|--1-1-1-1--|--6-6-6-6--|--6-5-6-6--|
G|--2-2-2-2--|--2-2-2-2--|--7-7-7-7--|--7-5-7-7--|
D|-----------|-----------|-----------|-----------|
A|-----------|-----------|-----------|-----------|
E|-----------|-----------|-----------|-----------|

E|-----------|-----------|-----------|-----------|
H|--3-3-3-3--|--3-1-3-3--|--3-3-3-3--|-----------|
G|--4-4-4-4--|--4-2-4-4--|--4-4-4-4--|-----------|
D|-----------|-----------|-----------|-----------|
A|-----------|-----------|-----------|-----------|
E|-----------|-----------|-----------|-----------|



I=-Refrain 1-=I
   C mol  E dur         A mol  C mol
  Kanona  kuyona    tayori na (ki)koete

   F dur    E mol       F dur F dur(without 2nd finer)
  kimi no namae wo       yondemitta

   C mol  E dur         A mol  C mol      F dur
  Kono kuruyoro       koete masuguri    mukiette yo

    G dur       C mol
  Dakidatteyo hayaraku

E|--0-1-0-1--|--0-0-0-0--|-----------|-----------|
H|--1-1-1-1--|--3-1-3-1--|-----------|-----------|
G|--0-0-0-0--|--0-0-0-0--|-----------|-----------|
D|--2-2-2-2--|-----------|-----------|-----------|
A|--3-3-3-3--|-----------|-----------|-----------|
E|--0-0-0-0--|-----------|-----------|-----------|



I=-Main Part 2-=I
E|-------1---1--|-----------|--------------0--|--0-0-0-0--|
H|--------------|------1----|----1---0/1------|--3-1-3-1--|
G|--2/3----3----|--3-2---2--|--1---1-----3----|--0-0-0-0--|
D|--------------|-----------|-----------------|-----------|
A|--------------|-----------|-----------------|-----------|
E|--------------|-----------|-----------------|-----------|

E|-------1-----1--|-----------|------1----|-----------|-----------|
H|----------------|------1----|----1---1--|--1-1-1-1--|--3-3-3-3--|
G|--2/3----2/3----|--3-2---2--|--1--------|--2-2-2-2--|--4-4-4-4--|
D|----------------|-----------|-----------|-----------|-----------|
A|----------------|-----------|-----------|-----------|-----------|
E|----------------|-----------|-----------|-----------|-----------|

E|-----------|-----------|-----------|-----------|
H|--3-3-3-3--|--3-3-3-3--|--6-6-6-6--|--6-5-6-6--|
G|--4-4-4-4--|--4-4-4-4--|--7-7-7-7--|--7-5-7-7--|
D|-----------|-----------|-----------|-----------|
A|-----------|-----------|-----------|-----------|
E|-----------|-----------|-----------|-----------|

E|-----------|-----------|-----------|-----------|
H|--3-3-3-3--|--8-8-8-8--|--5-5-5-5--|--3-3-3-3--|
G|--4-4-4-4--|--9-9-9-9--|--5-5-5-5--|--4-4-4-4--|
D|-----------|-----------|-----------|-----------|
A|-----------|-----------|-----------|-----------|
E|-----------|-----------|-----------|-----------|

E|-----------|-----------|-----------|-----------|
H|--1-1-1-1--|--1-1-1-1--|--6-6-6-6--|--6-5-6-6--|
G|--2-2-2-2--|--2-2-2-2--|--7-7-7-7--|--7-5-7-7--|
D|-----------|-----------|-----------|-----------|
A|-----------|-----------|-----------|-----------|
E|-----------|-----------|-----------|-----------|

E|-----------|-----------|-----------|-----------|
H|--3-3-3-3--|--3-1-3-3--|--3-3-3-3--|-----------|
G|--4-4-4-4--|--4-2-4-4--|--4-4-4-4--|-----------|
D|-----------|-----------|-----------|-----------|
A|-----------|-----------|-----------|-----------|
E|-----------|-----------|-----------|-----------|



I=-Refrein part 2-=I
    C mol  E dur        A mol  C mol
  Yashashi ni nante    kaikaborunante

 F dur    E mol         F dur F dur(without 2nd finer)
  ikarini moni        terukedo Chigau

   C mol  E dur         A mol  C mol   F dur
  Kanashini koete       masugurimukiette yo

    G dur       C mol
  Dakidatteyo tsuyoroku




I=-Pre-solo=-I

E|-------------|-----------|-----------|-------------|
H|-------------|-----------|-----------|-------------|
G|--5-5-5-4-5--|--7-5-7-9--|-----------|--5-5-5-4-5--|
D|-------------|-----------|--8-8-8-8--|-------------|
A|--3-3-3-2-3--|--5-3-5-7--|--8-8-8-8--|--3-3-3-2-3--|
E|-------------|-----------|--6-6-6-6--|-------------|

E|-----------|----------|-------------|-----------|
H|-----------|----------|-------------|-----------|
G|--7-5-7-9--|----------|--5-5-5-4-5--|--7-5-7-9--|
D|-----------|---15\6---|-------------|-----------|
A|--5-3-5-7--|----------|--3-3-3-2-3--|--5-3-5-7--|
E|-----------|---13\4---|-------------|-----------|

E|-----------|-----------|-----------|-----------|----------|
H|-----------|-----------|-----------|-----------|----------|
G|-----------|-----------|-----------|-----------|----------|
D|--8-8-8-8--|-----------|--7-7-7-7--|--5-5-5-5--|--5-------|
A|--8-8-8-8--|--7-7-7-7--|--5-5-5-5--|--3-3-3-3--|--5-------|
E|--6-6-6-6--|--5-5-5-5--|-----------|-----------|--3-------|


I=-Solo-=I
    Note: Play this like solo in Hybrid Rainbow
E|------------|-----------|-----------|------------|
H|------------|-----------|-----------|------------|
G|--5-7-9-10--|--9-7-5-7--|--5-7-5-7--|--12-5-7-9--|
D|------------|-----------|-----------|------------|
A|--3-5-7--8--|--7-5-3-5--|--3-5-3-5--|--10-3-5-7--|
E|------------|-----------|-----------|------------|

E|------------|-------------|---------------|
H|------------|-------------|---------------|
G|--10-9-7-5--|--7-9-10-12--|---------------|
D|------------|-------------|--14-16-17-19--|
A|---8-7-5-3--|--5-7--8-10--|--12-14-15-17--|
E|------------|-------------|---------------|

I=-Refrein part 3(play little slow and mute)-=I
    C mol  E dur         A mol  C mol
  Tamani wa chotto    Chishinimi tsutakoete

  F dur    E mol       F dur F dur(without 2nd finer)
  Kimi no naosa         kendemida

    C mol  E dur         A mol  C mol    F dur  F dur(without 2nd finger)
  Aseranakute ii sa     iiposutzu boku no sobani wo ide

    C mol  E dur            A mol  C mol   F dur
  Soshitei tsukabokuto      masugurimukiette yo

   G dur       C mol
  Dakidatteyo hayaraku

      Cmol        A mol
  tsuyoroku   haruga mama te

   F dur  F dur(without 2nd finger)   C mol
    tsuyogari            motsuzutede




I=-Outro-=I
E|-----------|------1--------|---------------|-----------|--0--------|
H|----5-3-1--|---------------|---------------|-----------|--1--------|
G|--0-0-0-0--|--2/3-------2--|--3-2-0-2------|--0-1-0----|--0--------|
D|--2--------|--------4/5----|--------3-2/3--|--------3--|--2--------|
A|-----------|---------------|---------------|-----------|--3--------|
E|-----------|---------------|---------------|-----------|--0--------|


Covered by Dante
I hope you like it :]
Tap to rate this tab
 
# A B C D E F G H I J K L M N O P Q R S T U V W X Y Z