Song name
# A B C D E F G H I J K L M N O P Q R S T U V W X Y Z

Pillows - Across The Metropolis tab

Yoo Guys, i Tab for you a song from Pied Pipper :] Hope You like it

The Pillows - Across The Metropolis 
xX-(Yoshiaki Manabe Guitar Part)-Xx

xX-Intro-Xx

e|----------------------------------|
H|-----0---2---0---2-3-2-------2----|
G|-1-2---2---2---2-------2-2-4---2--|
D|----------------------------------|
A|----------------------------------|
E|----------------------------------|

e|-------------------------------------|
H|-----0---2---0---2-3-2-------2---3-2-|
G|-1-2---2---2---2-------2-2-4---2-----|
D|-------------------------------------|
A|-------------------------------------|
E|-------------------------------------|

xX-Main Riff-Xx (Play it 2 times)

e|----------------------------10------|
H|-------------------7---10------10-7-|
G|-----------4---6--------------------|
D|---6---7---------0---0----0---------|
A|-0---0---0---0----------------------|
E|------------------------------------|

e|----------------------------10------|
H|-------------------7---10------10-7-|
G|-----------4---6--------------------|
D|---6---7---------0---0----0---------|
A|-0---0---0---0----------------------|
E|------------------------------------|

e|---------------------------------|
H|---5---5---5---5---2---2---------|
G|---------------------------------|
D|-7---7---6---6---4---4-----9---9-|
A|-------------------------7---7---|
E|---------------------------------|

e|-------------------------|
H|---5-------------7-------|
G|-------7---6---5-----7-6-|
D|-------------------7-----|
A|-5---5---5---5-----------|
E|-------------------------|

xX-Pre Refrain-Xx

e|-7-----7--0--9--------7-----7-0--|
H|-8-9------10---10-----8-9-----10-|
G|-8---8----11------11--8---8---11-|
D|-8--------0-----------8-------0--|
A|-7--------x-----------7-------x--|
E|-7--------10----------7-------10-|

xX-Refrain-Xx

a).Played by Sawao Yamanaka
e|------------------------------------------------------------|
H|------------------------------------------------------------|
G|----------------9-9-9-9-9-9-9--7-7-7-7-7-7-7--6-6-6-6-6-6-6-|
D|-7-7-7-7-7-7-7--9-9-9-9-9-9-9--7-7-7-7-7-7-7--7-7-7-7-7-7-7-|
A|-7-7-7-7-7-7-7--7-7-7-7-7-7-7--5-5-5-5-5-5-5--5-5-5-5-5-5-5-|
E|-5-5-5-5-5-5-5----------------------------------------------|

b).Played by Yoshiaki Manabe
e|-0-2\5-4---------------2/5-4-----------|
H|-2-------5-5\7---------------5-5\7-----|
G|-2-------------5-6-1\2-------------5-6-|
D|-2-------------------------------------|
A|-0-------------------------------------|
E|-0-------------------------------------|


xX-After Refrain-Xx

e|-----------------------------------------------------------|
H|-----------------------------------------------------------|
G|-6-6-4-4---6-8-8-8-6-6-4---9-7-6-6-6-6-4-6-6-9-7-6-6-4-6---|
D|---------7---------------7-------------------------------7-|
A|-4-4-2-2---4-6-6-6-4-4-2---7-5-4-4-4-4-2-4-4-7-5-4-4-2-4---|
E|---------5---------------5-------------------------------5-|

xX-Main Riff-Xx  (Play it 2 times)

e|----------------------------10------|
H|-------------------7---10------10-7-|
G|-----------4---6--------------------|
D|---6---7---------0---0----0---------|
A|-0---0---0---0----------------------|
E|------------------------------------|

e|----------------------------10------|
H|-------------------7---10------10-7-|
G|-----------4---6--------------------|
D|---6---7---------0---0----0---------|
A|-0---0---0---0----------------------|
E|------------------------------------|

e|---------------------------------|
H|---5---5---5---5---2---2---------|
G|---------------------------------|
D|-7---7---6---6---4---4-----9---9-|
A|-------------------------7---7---|
E|---------------------------------|

e|-------------------------|
H|---5-------------7-------|
G|-------7---6---5-----7-6-|
D|-------------------7-----|
A|-5---5---5---5-----------|
E|-------------------------|

xX-Pre Refrain-Xx

e|-7-----7--0--9--------7-----7-0--|
H|-8-9------10---10-----8-9-----10-|
G|-8---8----11------11--8---8---11-|
D|-8--------0-----------8-------0--|
A|-7--------x-----------7-------x--|
E|-7--------10----------7-------10-|

xX-Refrain-Xx

a).Played by Sawao Yamanaka
e|------------------------------------------------------------|
H|------------------------------------------------------------|
G|----------------9-9-9-9-9-9-9--7-7-7-7-7-7-7--6-6-6-6-6-6-6-|
D|-7-7-7-7-7-7-7--9-9-9-9-9-9-9--7-7-7-7-7-7-7--7-7-7-7-7-7-7-|
A|-7-7-7-7-7-7-7--7-7-7-7-7-7-7--5-5-5-5-5-5-5--5-5-5-5-5-5-5-|
E|-5-5-5-5-5-5-5----------------------------------------------|

b).Played by Yoshiaki Manabe
e|-0-2\5-4---------------2/5-4-----------|
H|-2-------5-5\7---------------5-5\7-----|
G|-2-------------5-6-1\2-------------5-6-|
D|-2-------------------------------------|
A|-0-------------------------------------|
E|-0-------------------------------------|

xX-Solo-Xx

e|---0-----0-----0-----0-----------0-------0---0---|
H|-3---3-2---2-3---3-5---5-3-2-0-2---2-2\7---7---5-|
G|-------------------------------------------------|
D|-------------------------------------------------|
A|-------------------------------------------------|
E|-------------------------------------------------|

e|---0---0---0---0---0---0----0----------------------|
H|-2---2---0-------0-------------------2-3-2-3-2-----|
G|-------------2-------2----1------2-2-----------4-2-|
D|-------------------------------4-------------------|
A|---------------------------------------------------|
E|---------------------------------------------------|
xX-Pre Refrain-Xx

e|-7-----7--0--9--------7-----7-0--|
H|-8-9------10---10-----8-9-----10-|
G|-8---8----11------11--8---8---11-|
D|-8--------0-----------8-------0--|
A|-7--------x-----------7-------x--|
E|-7--------10----------7-------10-|

xX-Refrain-Xx

a).Played by Sawao Yamanaka
e|------------------------------------------------------------|
H|------------------------------------------------------------|
G|----------------9-9-9-9-9-9-9--7-7-7-7-7-7-7--6-6-6-6-6-6-6-|
D|-7-7-7-7-7-7-7--9-9-9-9-9-9-9--7-7-7-7-7-7-7--7-7-7-7-7-7-7-|
A|-7-7-7-7-7-7-7--7-7-7-7-7-7-7--5-5-5-5-5-5-5--5-5-5-5-5-5-5-|
E|-5-5-5-5-5-5-5----------------------------------------------|

b).Played by Yoshiaki Manabe
e|-0-2\5-4---------------2/5-4-----------|
H|-2-------5-5\7---------------5-5\7-----|
G|-2-------------5-6-1\2-------------5-6-|
D|-2-------------------------------------|
A|-0-------------------------------------|
E|-0-------------------------------------|

xX-Outro-Xx

e|----------------------------------|
H|-----0---2---0---2-3-2-------2----|
G|-1-2---2---2---2-------2-2-4---2--|
D|----------------------------------|
A|----------------------------------|
E|----------------------------------|
					 A maj
e|-----------------------------------------0-|
H|-----0---2---0---2-3-2-------2---3-2-----2-|
G|-1-2---2---2---2-------2-2-4---2-----2-4-2-|
D|-----------------------------------------2-|
A|-----------------------------------------0-|
E|-----------------------------------------0-|

Corvered By Dante :]
Tap to rate this tab
 
# A B C D E F G H I J K L M N O P Q R S T U V W X Y Z