Guitaretab - guitar tabs
Song name
# A B C D E F G H I J K L M N O P Q R S T U V W X Y Z

Pillows - Another Morning tab

Another Morning tab by GuitarHawk777

background. Yeah when I first heard the song I really wanted to get

the tab but I couldn't find it which pissed me of so im putting it

so that people in the future don't get pissed.

Intro
STRUM ALOT

(Time)
From 00:00 to 00:40

  G    Am   Bm   C
E-3----0----2----0-*
b-0----1----3----1-*
g-0----2----4----0-*
d-0----2----4----2-*
a-2----0----2----3-*
e-3----X----2----X-*

2nd Part
pre-chorus bridge kind of part

Time

00:41 through 00:56 For advanced I sugest
barre chord A position 4 this part

 Bm    C    D    G    C    Bm   Am   D
E-2----0----2----3--|-0----2----0----2-*
b-3----1----3----0--|-1----3----1----3-*
g-4----0----2----0--|-0----4----2----2-*
d-4----2----0----0--|-2----4----2----0-*
a-2----3----X----2--|-3----2----0----X-*
e-2----X----X----3--|-X----2----X----X-*

CHORUS

Time
00:57 all the way to 01:18                  Turn around part or last
[ Tab from: http://www.guitaretab.com/p/pillows/117691.html ]
    Part A             PartB       Note      part of chorus 2nd
                                              G is barre chord
                                             01:19 1:22
  G    D    Em   C    G    D    C    D     G   D  G  F
E-3----2----0----0--|-3----2----0----2-  *-3---2--3--1-|
b-0----3----0----1--|-0----3----1----3   *-0---3--4--1-|
g-0----2----0----0--|-0----2----0----2-X2*-0---2--5--2-|
d-0----0----2----2--|-0----0----2----0-  *-0---0--5--3-|
a-2----X----2----3--|-2----X----3----X-  *-2---X--3--3-|
e-3----X----0----X--|-3----X----0----X-  *-3---X--3--1-|

SOLO
not very accurate but it will atleast help you figure it out

(--> ( <--) bend  (V) vibrate
E--------------------------------------------------------------|
b-13(----------------------------------------------------------|
g-14(--------14(--12--11--12--14--12---14(--12--11--12--14--12-|
d--------------------------------------------------------------|
a--------------------------------------------------------------|
e--------------------------------------------------------------|


E---15--17--15----15--17--19--15V--14-15-14--------------------|
b-15-----------17---------------------------15--12--13--15-15--|
g--------------------------------------------------------------|
d--------------------------------------------------------------|
a--------------------------------------------------------------|
e--------------------------------------------------------------|


E-13--12--13--12--10--12(--|and look awesome while finishing
b--------------------------|
g--------------------------|
d--------------------------|
a--------------------------|
e--------------------------|
Related for Another Morning tab
Advertisement will be closed in 10 seconds