Song name
# A B C D E F G H I J K L M N O P Q R S T U V W X Y Z

Pillows - Mr Droopy tab

The Pillows - Mr. Droopy
xX-(Yoshiaki Manabe Guitar Part)-Xx

xX-Intro-Xx
e|----------------------------------|
B|----------------------------------|
G|--8-9-8------x--x--x--------------|
D|--------11-9-11-11-9--------------|
A|-------------x--x--x-8-9-11-9-11--|
E|----------------------------------|

e|-----------------------------------|
B|-----------------------------------|
G|--8-9-8------x--x--x-4\11V-9-8-----|
D|--------11-9-11-11-9-----------11--|
A|-------------x--x--x---------------|
E|-----------------------------------|

xX-Verse 1-Xx
e|-----------------------------------|
B|-----------------------------------|
G|----------6-8-------------6-8------|
D|--7/9---9-------9-7\9---9-------9--|
A|------9-------9-------9-------9----|
E|-----------------------------------|

e|-----------------------------------------|
B|-----------------------------------------|
G|----11V-9-8-6-----6---8---------6-8------|
D|--9-----------9-9---9---7\9---9-------9--|
A|----------------------------9-------9----|
E|-----------------------------------------|

e|--------------2----------------x--|
B|----------2-----2-9-8------x-x-8--|
G|------3-----3---------11-9-9-9-x--|
D|--4-4---4------------------x-x----|
A|----------------------------------|
E|----------------------------------|

e|--------------2---4-2--|
B|----------2-----2-4-2--|
G|------3-----3-----4-3--|
D|--4-4---4---------6-4--|
A|------------------6-4--|
E|------------------4-2--|

xX-Refrein-Xx
e|--7-7-7-7-7--7-7-7-7-7--|
B|--7-7-7-7-7--9-9-9-9-9--|
G|--8-8-8-8-8--9-9-9-9-9--|
D|--9-9-9-9-9--9-9-9-9-9--|
A|--9-9-9-9-9--7-7-7-7-7--|
E|--7-7-7-7-7--7-7-7-7-7--|

e|--7-7-7-7-7--7-7-7-7-7--|
B|--7-7-7-7-7--9-9-9-9-9--|
G|--8-8-8-8-8--9-9-9-9-9--|
D|--9-9-9-9-9--9-9-9-9-9--|
A|--9-9-9-9-9--7-7-7-7-7--|
E|--7-7-7-7-7--7-7-7-7-7--|

e|--7-7-7-7-7--7-7-7-7-7--|
B|--7-7-7-7-7--9-9-9-9-9--|
G|--8-8-8-8-8--9-9-9-9-9--|
D|--9-9-9-9-9--9-9-9-9-9--|
A|--9-9-9-9-9--7-7-7-7-7--|
E|--7-7-7-7-7--7-7-7-7-7--|

e|--2-2-2--0-0-0--7-7-7-7-7--|
B|--2-2-2--0-0-0--7-7-7-7-7--|
G|--3-3-3--1-1-1--8-8-8-8-8--|
D|--4-4-4--2-2-2--9-9-9-9-9--|
A|--4-4-4--2-2-2--9-9-9-9-9--|
E|--2-2-2--0-0-0--7-7-7-7-7--|

xX-Intro-Xx
e|----------------------------------|
B|----------------------------------|
G|--8-9-8------x--x--x--------------|
D|--------11-9-11-11-9--------------|
A|-------------x--x--x-8-9-11-9-11--|
E|----------------------------------|

e|-----------------------------------|
B|-----------------------------------|
G|--8-9-8------x--x--x-4\11V-9-8-----|
D|--------11-9-11-11-9-----------11--|
A|-------------x--x--x---------------|
E|-----------------------------------|

xX-Verse 2-Xx
e|-----------------------------------------------------------------------------------------------|
B|-----------------------------------------------------------------------------------------------|
G|------------------7-8-7-8-----------------7-8-7-8-----------------------------------------10-11|
D|--9-9-9-9-9-9-9-9---------9-9-9-9-9-9-9-9---------9-9-9-9-9-9-9-9---------9-9-9-9-9-9-9-9------|
A|------------------------------------------------------------------8-9-8-9----------------------|
E|-----------------------------------------------------------------------------------------------|

I was too Lazy to tab how many time one chord have to by played :P
e|---------------------|
B|---------------------|
G|--4--8--4--7--4--11--|
D|---------------------|
A|--2--6--2--6--2--9---|
E|---------------------|

e|--------------2----------------x--|
B|----------2-----2-9-8------x-x-8--|
G|------3-----3---------11-9-9-9-x--|
D|--4-4---4------------------x-x----|
A|----------------------------------|
E|----------------------------------|

e|--------------2---4-2--|
B|----------2-----2-4-2--|
G|------3-----3-----4-3--|
D|--4-4---4---------6-4--|
A|------------------6-4--|
E|------------------4-2--|

xX-Refrein-Xx
e|--7-7-7-7-7--7-7-7-7-7--|
B|--7-7-7-7-7--9-9-9-9-9--|
G|--8-8-8-8-8--9-9-9-9-9--|
D|--9-9-9-9-9--9-9-9-9-9--|
A|--9-9-9-9-9--7-7-7-7-7--|
E|--7-7-7-7-7--7-7-7-7-7--|

e|--7-7-7-7-7--7-7-7-7-7--|
B|--7-7-7-7-7--9-9-9-9-9--|
G|--8-8-8-8-8--9-9-9-9-9--|
D|--9-9-9-9-9--9-9-9-9-9--|
A|--9-9-9-9-9--7-7-7-7-7--|
E|--7-7-7-7-7--7-7-7-7-7--|

e|--7-7-7-7-7--7-7-7-7-7--|
B|--7-7-7-7-7--9-9-9-9-9--|
G|--8-8-8-8-8--9-9-9-9-9--|
D|--9-9-9-9-9--9-9-9-9-9--|
A|--9-9-9-9-9--7-7-7-7-7--|
E|--7-7-7-7-7--7-7-7-7-7--|

e|--2-2-2--0-0-0--7-7-7-7-7--|
B|--2-2-2--0-0-0--7-7-7-7-7--|
G|--3-3-3--1-1-1--8-8-8-8-8--|
D|--4-4-4--2-2-2--9-9-9-9-9--|
A|--4-4-4--2-2-2--9-9-9-9-9--|
E|--2-2-2--0-0-0--7-7-7-7-7--|

xX-Solo-Xx
e|--7-6-------------------------------------------------|
B|------9-7--7------------------------------------------|
G|-------------9-8-6-8---8-9-8-6-8---------6---6\8-8-8--|
D|----------9----------9-----------9---6-8---8----------|
A|-----------------------------------9------------------|
E|------------------------------------------------------|

e|--------11-14--14-12-11-9----9------------------------------------------------------|
B|-----12------------------------12-11-11/12-11-9-------------------------------------|
G|--11----------------------11--------------------11-11-13-13-11----------------------|
D|---------------------------------------------------------------11\13-13-11-9-11-11--|
A|------------------------------------------------------------------------------------|
E|------------------------------------------------------------------------------------|

e|--------------------------------|
B|--------------------------------|
G|--8-8-9-9-11-11-15-15-16-18-18--|
D|--------------------------------|
A|--------------------------------|
E|--------------------------------|

xX-Intro-Xx
e|--------------2----------------x--|
B|----------2-----2-9-8------x-x-8--|
G|------3-----3---------11-9-9-9-x--|
D|--4-4---4------------------x-x----|
A|----------------------------------|
E|----------------------------------|

e|--------------2---4-2--|
B|----------2-----2-4-2--|
G|------3-----3-----4-3--|
D|--4-4---4---------6-4--|
A|------------------6-4--|
E|------------------4-2--|

xX-Refrein-Xx
e|--7-7-7-7-7--7-7-7-7-7--|
B|--7-7-7-7-7--9-9-9-9-9--|
G|--8-8-8-8-8--9-9-9-9-9--|
D|--9-9-9-9-9--9-9-9-9-9--|
A|--9-9-9-9-9--7-7-7-7-7--|
E|--7-7-7-7-7--7-7-7-7-7--|

e|--7-7-7-7-7--7-7-7-7-7--|
B|--7-7-7-7-7--9-9-9-9-9--|
G|--8-8-8-8-8--9-9-9-9-9--|
D|--9-9-9-9-9--9-9-9-9-9--|
A|--9-9-9-9-9--7-7-7-7-7--|
E|--7-7-7-7-7--7-7-7-7-7--|

e|--7-7-7-7-7--7-7-7-7-7--|
B|--7-7-7-7-7--9-9-9-9-9--|
G|--8-8-8-8-8--9-9-9-9-9--|
D|--9-9-9-9-9--9-9-9-9-9--|
A|--9-9-9-9-9--7-7-7-7-7--|
E|--7-7-7-7-7--7-7-7-7-7--|

e|--2-2-2--0-0-0--7-7-7-7-7--|
B|--2-2-2--0-0-0--7-7-7-7-7--|
G|--3-3-3--1-1-1--8-8-8-8-8--|
D|--4-4-4--2-2-2--9-9-9-9-9--|
A|--4-4-4--2-2-2--9-9-9-9-9--|
E|--2-2-2--0-0-0--7-7-7-7-7--|


xX-Outrotro-Xx
e|--7-7-7-7-7--7-7-7-7-7--|
B|--7-7-7-7-7--9-9-9-9-9--|
G|--8-8-8-8-8--9-9-9-9-9--|
D|--9-9-9-9-9--9-9-9-9-9--|
A|--9-9-9-9-9--7-7-7-7-7--|
E|--7-7-7-7-7--7-7-7-7-7--|

e|--7-7-7-7-7--7-7-7-7-7--|
B|--7-7-7-7-7--9-9-9-9-9--|
G|--8-8-8-8-8--9-9-9-9-9--|
D|--9-9-9-9-9--9-9-9-9-9--|
A|--9-9-9-9-9--7-7-7-7-7--|
E|--7-7-7-7-7--7-7-7-7-7--|

e|--7-7-7-7-7--7-7-7-7-7--|
B|--7-7-7-7-7--9-9-9-9-9--|
G|--8-8-8-8-8--9-9-9-9-9--|
D|--9-9-9-9-9--9-9-9-9-9--|
A|--9-9-9-9-9--7-7-7-7-7--|
E|--7-7-7-7-7--7-7-7-7-7--|

e|--2-2-2--0-0-0--7-7-7-7-7--|
B|--2-2-2--0-0-0--7-7-7-7-7--|
G|--3-3-3--1-1-1--8-8-8-8-8--|
D|--4-4-4--2-2-2--9-9-9-9-9--|
A|--4-4-4--2-2-2--9-9-9-9-9--|
E|--2-2-2--0-0-0--7-7-7-7-7--|

e|--2-2-2--0-0-0--7-7-7-7-7--|
B|--2-2-2--0-0-0--7-7-7-7-7--|
G|--3-3-3--1-1-1--8-8-8-8-8--|
D|--4-4-4--2-2-2--9-9-9-9-9--|
A|--4-4-4--2-2-2--9-9-9-9-9--|
E|--2-2-2--0-0-0--7-7-7-7-7--|

e|--2-2-2--0-0-0--7-7-7-7-7--|
B|--2-2-2--0-0-0--7-7-7-7-7--|
G|--3-3-3--1-1-1--8-8-8-8-8--|
D|--4-4-4--2-2-2--9-9-9-9-9--|
A|--4-4-4--2-2-2--9-9-9-9-9--|
E|--2-2-2--0-0-0--7-7-7-7-7--|

Covered Dy Dante :]
Tap to rate this tab
# A B C D E F G H I J K L M N O P Q R S T U V W X Y Z