Song name
# A B C D E F G H I J K L M N O P Q R S T U V W X Y Z

Pillows - Go Go Jupiter tab

Ok Hello this is my second official Tab by GuitarHawk777
it was requested in youtube
this was done by ear
Band: The Pillows
Song:Go! Go! Jupiter

Intro
Part I                                      Part II
        Manabe alone   play once        |*|  Sawao Joins   note:Play twice
E---------------------------------------|*|-------------------------* X2 13)
B-13--10--11----------------10-10-12-12-|*|-13-13-10-10-11-11-10-10-*
G-------------9--10-10-12-12------------|*|-------------------------*
D---------------------------------------|*|-------------------------*
A---------------------------------------|*|-------------------------*
E---------------------------------------|*|-------------------------*

Note: when you play Part II the second time the last note you have to bend and
after you bend slide it <------------- (this way)

Verse

Part III                              PartIV
Note: Notice I changed from ebgdae and turned it this is just for confort)
  C5   A#5     F5    G5  (add on)     C5      A#5    Am      (add on)
E--------------1-----3-0-3-0-3-0-3)-*----------------X------3-0-3-0-3-0-3-|
A-3-----1------3-----5--------------*-3-------1------0------5-------------|
D-5-----3------3-----5--------------*-5-------3------2------5-------------|
G-5-----3---------------------------*-5-------3------2--------------------|
B-----------------------------------*----------------1--------------------|
E-----------------------------------*----------------0--------------------|

Note: The second time (which is the last part in the verse) you play Part IV
don't play add on just accent the G chord by making it barre chord.


Chorus
Part V
Note: Add on part doesn't mean I added it on it just means its adding to the chord) play part V
  F    C                      F    C    A5   A#5  F
E-1----3----------------|*_*|-1----3----5----6----1-|*|
A-3----3--(Add On Part)-|*_*|-3----3----7----8----3-|*|
D-3----5-----------7--5-|-X2|-3----5----7----8----3-|*|And back to part
G-2----5-5-5-4-5-4------|*_*|-2----5----------------|*|Part I
B-1----5----------------|*_*|-1----5----------------|*|
E-1----3----------------|*_*|-1----3----------------|*|

Solo
I once again turned eadgbe again keep in mind to make it look kooler.
Note:(-> ) <-) means bend and (F) means tempo goes up by 2
third 12 is normal no bend X7 means play seven times X2 means play 2 times

E-----------------------------------------------------------------------|
B-12)X7-12FX2-12-10-12---12)X7-12FX2-10-8-6-----------------------------|
G--------------------------------------------8)-7-5-7-7)-5--------------|
D----------------------------------------------------------7-------5--7-|
A-------------------------------------------------------------5--7------|
E-----------------------------------------------------------------------|

E-----------------------------------------------------------------------|
B-----------------------------------------------------------------------|
G-5--7)--5--4--5-10--9--7--5--------------------------------------------|
D----------------------------F7-7-5-5-3-3-2-2---------------------------|
A---------------------------------------------5-5-3-3-2-2-3-3-5))-3-2-3-|
E-----------------------------------------------------------------------|

The rest figure out by your self
Tap to rate this tab
 
# A B C D E F G H I J K L M N O P Q R S T U V W X Y Z