Song name
# A B C D E F G H I J K L M N O P Q R S T U V W X Y Z

Pillows - Carnival tab

-------------------------------------------------------------------------------
			     Carnival - the pillows
-------------------------------------------------------------------------------
Tabbed by: Alex B
Email: brisknfade@gmail.com
Date: 3-25-08

I noticed that most of the Carnival tabs here didn't include any of the solo's in the 
song, so I attempted to tab them.

These are my interpretations of the two solos, and as such they are nowhere near exact 
of the song, but they sound good enough to me.


Tuning:Standard


1st Solo (Comes after 1st chorus at about 1:24)

E|----------------------------------------------------|
B|----------------------------------------------------|
G|-------------------4--------------4-5---4-5---4-5---| x2
D|--5-----5--7---7-5-------5-7----------5-----5-----5-|
A|----------------------------------------------------|
E|----------------------------------------------------|


2nd Solo (Comes after 2nd chorus at about 2:36)

E|----------------------------------------------------------|
B|----------------------------------------------------------|
G|--4-5--4-----------4----------------------4-5-4-----------|
D|----------7-7-5-7----5----5-7-5-7-5-7-5-7---------4-5-----|
A|----------------------------------------------------------|
E|----------------------------------------------------------|

E|----------------------------------------------------------|
B|-------------------------------------------------5-7-8----|
G|--4-5--4-----------4------7-7----------5--4--5-7----------|
D|---------7-7-5-7-----5----------7-7-----------------------|
A|----------------------------------------------------------|
E|----------------------------------------------------------|

E|---|-----------------------------|---|-----------------------------------|
B|---|-----------------------------|---|-----------------------------------|
G|-7-|-7---5-4-------------4-------|-7-|--7-5-4-5-4-5-4-------4-5-7-5-4----|
D|-5-|---------7---5-7---5---7-5---|-5-|----------------7-5-7-----------5--|
A|---|-----------------------------|---|-----------------------------------|
E|---|-----------------------------|---|-----------------------------------|
  16x                               16x

Notes:
I know the song has some slides in between some of the notes, but they are not here for 
sake. These are basic tabs

simply to give you an idea of how the solos go so you can add slides, bends, and whatnot 
you please.

Some parts, specifically during the second half of the second solo, are hard to figure 
because all the noise drowns out most of the guitar, so it may sound a bit iffy.
Tap to rate this tab
 
# A B C D E F G H I J K L M N O P Q R S T U V W X Y Z