Song name
# A B C D E F G H I J K L M N O P Q R S T U V W X Y Z

Pillows - Come Down tab

Help us improve GuitareTab! Take a short survey!
Song: Come Down
Artist: The Pillows
Album: FLCL OST-1 Addict
Tabbed By: Justin Loverchio

As far as I can tell, both guitars do the same thing except that little riff 
in the middle of each chorus. Anyuway...

~Guitars~


Verse

e|------------------------------|
B|------------------------------|
G|------------------------------|
D|--10-10-8--8--7--7--6--6-6----|
A|--10-10-8--8--7--7--6--6-6----|
E|--8--8--6--6--5--5--4--4-4----|

Chorus

e|------------------------------|-----------------------------|
B|------------------------------|-----------------------------|
G|---------7b8-7-5--------------|---------7b8-7-5-------------|
D|--5----7---------7-5---8----3-|--5----7---------7-5---8~----|
A|--5----7---------------8----3-|--5----7---------------8~----|
E|--3----5---------------6----1-|--3----5---------------6~----|


~Bass~


Intro

G|------------------------------|
D|------------------------------|
A|------10-----8----7------6----|
E|--8-8----6-6---5-5---4-4------|

Verse

G|------------------------------|
D|------------------------------|
A|------------------------------|
E|--8--8--6--6--5--5--4--4------|

Chorus

G|---------------------------------------|
D|---------------------------------------|
A|---------------------------------------|
E|--33333333-55555555-66666666-11111111--|


G|---------------------------------------|
D|---------------------------------------|
A|---------------------------------------|
E|--33333333-55555555-6666666666666666---|

That's it. Should be 100% correct, if you have a better idea as to how it may
go, or have any questions or comments, contact me
at ponchosplayhouse@gmail.com
Related for Come Down tab