Song name
# A B C D E F G H I J K L M N O P Q R S T U V W X Y Z

Pillows - Advice tab

This is a diffrent version of advice by the pillows. in this version they sing instead 
play a really long solo.

|------------------------|
|------------------------|
|------------------------|
|------------------------|
|------------------------|
|-0-66--0-33--0-66--0-33-|   x2

the drums enter and then you play


|-----------|
|-----------|
|-----------|
|---88----55|
|---88----55|   x3
|-0-66--0-33|

then


|-------------|
|-------------|
|-------------|
|--5-4-5-6-5-6|
|--6-5-6-5-6-5|
|0------------|

they alternate between these two parts

|-----------|
|-----------|
|-----------|
|---88----55|
|---88----55|  x3
|-0-66--0-33|

|---------------|
|---------------|
|---------------|
|--5-4--5-6--5-6|
|--6-5--6-5--6-5|
|0--------------|


the bass really distorts the chorus and it's kind of hard to hear so there are two ways 
play the Chorus:

                                       or
|-------------------------------------| |----------------------------------|
|--------------------------------6b-5~| |-----------------------------6b-5~|
|--------------------------------6--5-| |-----------00000000--11111111-----|
|-33333333--77777777--88888888--------| |-11111111--00000000--11111111-----|
|-33333333--77777777--88888888--------| |-11111111--00000000--11111111-----|
|-11111111--55555555--66666666--------| |-11111111-------------------------|


then it goes back to the alternating:

|-----------|
|-----------|
|-----------|
|---88----55|
|---88----55|  x3
|-0-66--0-33|

|---------------|
|---------------|
|---------------|
|--5-4--5-6--5-6|
|--6-5--6-5--6-5|
|0--------------|


the melody sounds like it was done with a synthesizer but it goes:

|----------------------|
|----------------------|
|----------------6b-5~-|
|-12~-16-14~-15~-------|
|----------------------|
|----------------------|   x2


then the verse and chorus repeat and the melody follows


legend

b = bend
~ = let ring
Tap to rate this tab
# A B C D E F G H I J K L M N O P Q R S T U V W X Y Z