Song name
# A B C D E F G H I J K L M N O P Q R S T U V W X Y Z

Pillows - Slow Down tab

Guitar 1
|----------------------------|
|-----5-7-5---------5-7-5----|
|----6-----6-------6-----6---|
|---7-------7-9---7-------7-7|
|----------------------------|
|----------------------------|

Guitar 2
|--------------------|
|-5-/6---------------|
|-6-/7---------------|
|--------------------|
|--------------------|
|--------------------|
if there are any problems which i doubt there are email me at colorquest123@yahoo.com


tabbed by eugene123
Tap to rate this tab
# A B C D E F G H I J K L M N O P Q R S T U V W X Y Z