Song name
# A B C D E F G H I J K L M N O P Q R S T U V W X Y Z

Pillows - Nightmare tab

  

  


Nightmare  
by The Pillows 
 
This is a 1 minute long instrumental. 
 
|------------------------| 
|------------------------| 
|-----------5--5-5-5-55--| 
|--6-6--33--5--5-5-5-55--| x3 
|--6-6--33--3--3-3-3-33--| 
|--4-4--11---------------| 
 
|------------------------| 
|------------------------| 
|--6-6------5--5-5-5-55--| 
|--6-6--444-5--5-5-5-55--| 
|--4-4--444-3--3-3-3-33--| 
|-------222--------------| 
 
That whole section^ is played 5 times. 
 
Ending 
|------------------------| 
|------------------------| 
|--6-6-------5-----------| 
|--6-6--4-4--5-----------| 
|--4-4--4-4--3-----------| 
|-------2-2--------------| 
 
That's all there is to it. 
Tap to rate this tab
# A B C D E F G H I J K L M N O P Q R S T U V W X Y Z